Oops, an error
Loading. Please wait.

Desde Aca Bass Tab

23 views 1 this week
no commentswrite comment
1 2 3 4 5
3 more votes to show rating
add to favorites
launch autoscroll
font size
0
reset
guitar tuner
×
Best way to learn
"Desde Aca"
Autoscroll
slow
fast
+/-
esc
set tempo
stop
Desde aca (al 100%)NyC
luego de la Intro con gutarra

Intro:

4:---------------------3-0p3-0p3-----------
3:--5-5---5-5--4-4--4----------------------
2:------7---------6------------------------
1:-----------------------------------------
Versos:

4:---------------------3-0p3-0p3-----------
3:--5-5---5-5--4-4--4----------------------
2:------7---------6------------------------
1:-----------------------------------------

Coro:

4:-----------------------------------------
3:---7-7--------7-7/5-5-4p5-4p5/-----------
2:-----------------------------------------
1:-------9-7-9-----------------------------

Orden:

Intro: x5 (ambas estan de corrido)
Verso: x3

Coro : x4
Verso: x12
Coro : x4
Verso: x14...

(tambien pudes tocarla en Slap), igual suena de las dos
formas super bien....
Suggest correction
Give kudos to tab author, rate the tab!
1 2 3 4 5
comments
print report bad tab
guest
You may want to rate the tab now too:
select rating
Wanna post a correction for this tab? Suggest correction