Oops, an error
Loading. Please wait.

Fé Bass Tab

version 1
version 1

Whole song

2,451 views 1 this week
no commentswrite comment
1 2 3 4 5
please rate
add to favorites
launch autoscroll
font size
0
reset
guitar tuner
Autoscroll
slow
fast
+/-
esc
set tempo
stop
Help us to improve Ultimate-Guitar.com Take our survey!
×
Author
Empieza a los 00:13 despues del intro con guitarra

G|--------------------------------------------------|
D|--------------------------------------------------|
A|-- 55555555—1010101010—1212121212----7777777------|
E|--------------------------------------------------|

G|------------------------------------|
D|------------------------------------|
A|-- 3333333--------------------------|
E|---------------------5555555--------|

O fe viento sopla fuerte en tu piel.....................
G|-----------------------------------------------------|
D|-----------------------------------------------------|
A|-- 22222222—5555555555—1010101010----1212121212------|
E|-----------------------------------------------------|

G|------------------------------------------------------|
D|------------------------------------------------------|
A|-77777777--3333333------------——----------------------|
E|----------------------------5555555--5-3h5-5-3-5-3----|
lo pongo pero esta malo no caxo k va
CORO: O fe cortate las alas .................
G|------------------------------------------------------------|
D|------------------------------------------------------------|
A|-- 33333333—555555—9999999999----777777777------1010101010--|
E|------------------------------------------------------------|

G|-----------------------|
D|---77777777------------|
A|--—--------------------|
E|-----------------------|
VARIACION CORO:
G|--------------------------------------------------------------|
D|--------------------------------------------------------------|
A|-- 33333333—555555—9999999999----777777777------1010101010----|
E---------------------------------------------------------------|

G|---------------------------------|
D|-----------------12--14----------|
A|-- 12121212—--—------------------|
E|---------------------------------|

G|---------------------------------|
D|-----------------12—14--16-------|
A|-- 12121212—--—------------------|
E|---------------------------------|


Fe si es tu arcoiris al que eclipsa.........................

G|-------------------------------------------------------|
D|-------------------------------------------------------|
A|--5----------10—------12h13h12---------I           X 2-|
E|-------------------------------------------------------|

G|--------------------------------------------------------|
D|--------------------------------------------------------|
A|-- 5-5-5—12h13h12—10-12h10h12-10-15----------77777777---|
E|--------------------------------------------------------|

G|-----------------------|
D|-----------------------|
A|-- 1212121212----------|
E|-----------------------|
FINAL
G|---------------------------------------------------|
D|---------------------------------------------------|
A|--------- 222222----------555555—12s14s12—9--------|
E|---------------------------------------------------|

G|---------------------------------------------|
D|---------------------------------------------|
A|-- 2222222222-----------555555555555---------|
E|---------------------------------------------|


G|-----------------------------------|
D|-----------------------------------|
A|-- 12s14-14-12-9—55s7-----2--------|
E|-----------------------------------|

benjagarnham@gmail.com
Suggest correction
Give kudos to tab author, rate the tab!
1 2 3 4 5
comments
print report bad tab
guest
You may want to rate the tab now too:
select rating
Please do not post tabs as comments. Select "correction" instead!