Oops, an error
Loading. Please wait.

Hacia El Cielo Tab

8 views 1 this week
no commentswrite comment
1 2 3 4 5
3 more votes to show rating
add to favorites
launch autoscroll
font size
0
reset
how to read this tab
guitar tuner
Autoscroll
slow
fast
+/-
esc
set tempo
stop
Help us to improve Ultimate-Guitar.com Take our survey!
×
riff 1 (INTRO)
e------------------------------------------------------
b-3-----------3--5-------3----------3------------------
g-0----0--------------0--0-----0----0------0-----------
d----0--------------0---------4--4--------4-4----------
a-------------2--3-------0----------0------------------
e-3----------------------------------------------------

riff 1
Nadie podra evitar nuestro rose
riff 1
solo vemos brazos flotar
riff 1
ir abrasando el acero
riff 1
hasta obtener el calor
para respirar


riff 2a             riff 2b
empezamos a elevarnos
      riff 2c
tu espalda es mi escala

riff 2a
e---------------
b------3--------
g------0--------
d----0--0--------
a---------------
e-3-------------

riff 2b
e----------------
b------3---------
g------0---------
d----0--0--------
a--2-------------
e----------------

riff 2c

e----------------
b------3---------
g------0---------
d----0--0--------
a--3-------------
e----------------

riff d

e----------------
b------3---3------
g------0---0------
d----4---0-4-------
a--0-------0------
e----------------

riff d
ir arañando hacia el cielo
riff 1
ir arañando hacia el cielo
riff 1
ahora que estamos sobre las simas
riff 1
no descansaremos aca

(...y termina con)
e------------
b-----3------
g-----0------
d-----4------
a-----0------
e------------

ESO ES TODO... ESTA CANCION ES SUPER BUENA...
Y ESTA CANCION ESTA DEDICADA A MI VERITO. YA QUE LA
RAZON DE ESO FUE ELLA LA KERO MI NIÑA!... la quiero,
Suggest correction
Give kudos to tab author, rate the tab!
1 2 3 4 5
comments
print report bad tab
guest
You may want to rate the tab now too:
select rating
Wanna post a correction for this tab? Suggest correction