Oops, an error
Loading. Please wait.

Luces No Belicas Bass Tab

517 views 1 this week
no commentswrite comment
1 2 3 4 5
please rate
add to favorites
launch autoscroll
font size
0
reset
guitar tuner
Autoscroll
slow
fast
+/-
esc
set tempo
stop
Help us to improve Ultimate-Guitar.com Take our survey!
×
Author
Difficulty
novice
Intro:
G|---------------------------------||
D|---------------------------------||
A|---------------------------------||
E|--0---0-0---0-0--—0-0-0-5h7-5----|| x2 

G|---------------------------------||
D|---------------------------------||
A|---------------------------------||
E|--0---0-0---0-0--—0-0-0-5h7-5----|| Durante las siguientes estrofas.

Tanto resguardarse entre tus pelos de hierba
Llevo a mis ojos aun en sangre
A prender fuego y no mentir.

Dame un segundo
Entre mis dedos incendiarios
G|--------------------------------||
D|--------------------------------|| Esta variación de 2 golpes a 1 le lleva
A|--------------------------------|| en la siguiente estrofa y cambia después
E|--0----0----0---—0-0-0-5h7-5----|| normal a 2 hasta el coro.
Seré tu alfombra de sal no confundas al mar
Con ceguez me vas a oír.

Coro:
G|--------------------------------||
D|------9\----7\---------2-2-2-2--||
A|--------------------------------||
E|--7-7---5-5----3-3-3-3----------||  
No te van a herir, son luces no peste.

G|---------------------------------||
D|---------------------------------||
A|---------------------------------||
E|--0---0-0---0-0--—0-0-0-5h7-5----|| Durante las siguientes estrofas.
Corta por lo sano
Que si no es sano ya esta afuera
G|--------------------------------||
D|--------------------------------|| Esta variación de 2 golpes a 1 le lleva
A|--------------------------------|| en la siguiente estrofa y cambia después
E|--0----0----0---—0-0-0-5h7-5----|| normal a 2 hasta el coro.
Entre tu humor y mi fe todo huele a normal 
Con ceguez me vas a oír.

Coro: 
G|-------------------------------------------------------------------------------------------||
D|-----9\---7\-------------------9\----7\-----------2-2/5h7h5---9\---7\--------------7-7-7—7-||
A|----------------------------------------------------------------------------3-3-3-3--------||
E|--7-7--5-5--3-3-3-3-3-3-3-3/7-7—-5-5---3-3-3-3-3-3---------7-7--5-5--0-0-0-0---------------||  
No te van a herir, son luces no bélicas
Y pretenden saber donde ir
Dentro de ti.

G|---------------------------------||
D|---------------------------------||
A|---------------------------------||
E|--0---0-0---0-0--—0-0-0-5h7-5----|| Durante las siguientes estrofas.
No ilumina el viento
Grita tu voz por dentro
No ilumina el viento.






Coro: 
G|-------------------------------------------------------------------------------------||
D|-----9\---7\-------------------9\----7\-----------2-2/5h7h5---9\---7\----------------||
A|----------------------------------------------------------------------------3-3-3-3--||
E|--7-7---5-5—3-3-3-3-3-3-3-3/7-7—-5-5---3-3-3-3-3-3---------7-7--5-5--0-0-0-0---------||  
Y son luces no bélicas
Y pretenden saber donde ir
Uh Uh Uh Uh !!!
Coro: 
G|-------------------------------------------------------------------------------------------||
D|-----9\---7\-------------------9\----7\-----------2-2/5h7h5---9\---7\--------------7-7-7—7-||
A|----------------------------------------------------------------------------3-3-3-3--------||
E|--7-7--5-5--3-3-3-3-3-3-3-3/7-7—-5-5---3-3-3-3-3-3---------7-7--5-5--0-0-0-0---------------||  
Y son luces no bélicas
Y pretenden saber donde ir
Dentro de ti, ahhh !!!

Outro:
G|---------------------------------||
D|---------------------------------||
A|---------------------------------||
E|--0---0-0---0-0--—0-0-0-5h7-5----|| x3

G|----------------------||
D|----------------------|| 
A|----------------------|| 
E|--0----0----0---—0-0--|| 

Y pues para completar la canción les mando el bajeo, disfrutenla . . .
And to complete the song, send you all the bass tab, enjoy . . .
any question, comment please email me ragarideath@hotmail.com
Suggest correction
Give kudos to tab author, rate the tab!
1 2 3 4 5
comments
print report bad tab
guest
You may want to rate the tab now too:
select rating
Please do not post tabs as comments. Select "correction" instead!