Oops, an error
Loading. Please wait.

Luces No Belicas Tab

862 views 3 this week
no commentswrite comment
1 2 3 4 5
excellent!
x 1
add to favorites
launch autoscroll
font size
0
reset
how to read this tab
guitar tuner
Tab Pro tools
  • play this tab
  • loop segment
  • change instrument
  • show fretboard
  • metronome
Autoscroll
slow
fast
+/-
esc
set tempo
stop
Contributor
Difficulty
novice
Intro:
   E5    G5         E5    G5        E5    G5          B5 A5 B5
e|----------------|----------------|----------------|----------||
B|----------------|----------------|----------------|----------||
G|----------------|----------------|----------------|----------||
D|----------------|----------------|----------------|----------||
A|-2--2--5--5--5--|-2--2--5--5--5--|-2--2--5--5--5--|-9--7--9--||
E|-0--0--3--3--3--|-0--0--3--3--3--|-0--0--3--3--3--|-7--5--7--||
   E5    G5         E5    G5        E5    G5          A5 G5 A5
e|----------------|----------------|----------------|------------||
B|----------------|----------------|----------------|------------||
G|----------------|----------------|----------------|------------||
D|----------------|----------------|----------------|------------||
A|-2--2--5--5--5--|-2--2--5--5--5--|-2--2--5--5--5--|-7--5--777--||
E|-0--0--3--3--3--|-0--0--3--3--3--|-0--0--3--3--3--|-5--3--555--||

Tanto resguardarse
Entre tus pelos de hierba
Llevo a mis ojos aun en sangre
A prender fuego y no mentir
   (Em*) Con Palm Mute
e|--7--||  Nota Opcional: e|--7--|| <-Esta nota se escucha mejor.
B|--8--||                 B|--8—-||
G|--9--||                 G|--9--||
D|--9--||                 D|--9--||
A|--7--||                 A|--x--||
E|--0--||                 E|--x--||
Dame un segundo
Entre mis dedos incendiarios
Seré tu alfombra de sal
No confundas al mar
Con ceguez me vas a oír
             B5   A5   G5
          e|-------------------------------||
          B|-------------------------------||
          G|-------------------------------||
          D|-4444-2222---------------------||
          A|-2222-0000-5-5-5-5-5-5-5-5-5-5-||
          E|-----------3-3-3-3-3-3-3-3-3-3-||
No te van a herir......son luces no peste!

Corta por lo sano
Que si no es sano ya esta afuera
   (Em*) Con Palm Mute
Entre tu humor y mi fe todo huele a normal 
Con ceguez me vas a oír ...
             B5   A5   G5
          e|-------------------------------||
          B|-------------------------------||
          G|-------------------------------||
          D|-4444-2222---------------------||
          A|-2222-0000-5-5-5-5-5-5-5-5-5-5-||
          E|-----------3-3-3-3-3-3-3-3-3-3-||
No te van a herir.....son luces no bélicas
         B5   A5   G5                  B5   A5   E5    C5     A5
     e|--------------------------------------------------------------||
     B|--------------------------------------------------------------||
     G|--------------------------------------------------------------||
     D|-4444-2222----------------------4444-2222-------55555---------||
     A|-2222-0000-5-5-5-5-5-5-5-5-5-5--2222-0000-22222-33333--77777--||
     E|-----------3-3-3-3-3-3-3-3-3-3------------00000--------55555--||
        y........pretenden saber donde ir........dentro de ti...ahhhhh !!!




(Em*) con palm mute:
No ilumina el viento
Grita tu voz por dentro
No ilumina el viento
       B5   A5   G5
    e|-------------------------------||
    B|-------------------------------||
    G|-------------------------------||
    D|-4444-2222---------------------||
    A|-2222-0000-5-5-5-5-5-5-5-5-5-5-||
    E|-----------3-3-3-3-3-3-3-3-3-3-||
       y........son luces no bélicas
       B5   A5   G5                   B5   A5   E5    C5 
    e|-------------------------------------------------------||
    B|-------------------------------------------------------||
    G|-------------------------------------------------------||
    D|-4444-2222----------------------4444-2222-------55555--||
    A|-2222-0000-5-5-5-5-5-5-5-5-5-5--2222-0000-22222-33333--||
    E|-----------3-3-3-3-3-3-3-3-3-3------------00000--------||
       y........pretenden saber donde ir          Uh Uh Uh Uh !!!
       B5   A5   G5
    e|-------------------------------||
    B|-------------------------------||
    G|-------------------------------||
    D|-4444-2222---------------------||
    A|-2222-0000-5-5-5-5-5-5-5-5-5-5-||
    E|-----------3-3-3-3-3-3-3-3-3-3-||
       y........son luces no bélicas
        B5   A5   G5                   B5   A5   E5    C5     A5
     e|--------------------------------------------------------------||
     B|--------------------------------------------------------------||
     G|--------------------------------------------------------------||
     D|-4444-2222----------------------4444-2222-------55555---------||
     A|-2222-0000-5-5-5-5-5-5-5-5-5-5--2222-0000-22222-33333--77777--||
     E|-----------3-3-3-3-3-3-3-3-3-3------------00000--------55555--||
        y........pretenden saber donde ir........dentro de ti...ahhhhh !!!

Final en palm mute. (Em*) 
e|--7--||  Nota Opcional: e|--7--|| 
B|--8--||                 B|--8—-||
G|--9--||                 G|--9--||
D|--9--||                 D|--9--||
A|--7--||                 A|--x--||
E|--0--||                 E|--x--||

Saludos desde Tijuana BC, dedico esta tablatura para mi hijo, espero algún día el
tambien le interese tocar este bello instrumento.
Happy everything . . . 
comments
We did not receive enough feedback on this tab! Please rate:
print report bad tab
1 2 3 4 5
I want to post or [tab]
guest
You may want to rate the tab now too:
select rating
Please do not post tabs as comments. Select "correction" instead!