Oops, an error
Loading. Please wait.

Me Dejo Tentar Bass Tab

version 2
version 2

Whole song

39 views 3 this week
no commentswrite comment
1 2 3 4 5
3 more votes to show rating
add to favorites
launch autoscroll
font size
0
reset
guitar tuner
×
Best way to learn
"Me Dejo Tentar"
Autoscroll
slow
fast
+/-
esc
set tempo
stop
hola hola, bueno este tab no es ke sea la correccion del anterior :P pero
creo k suena mejor k el anterior aunke el otro igual
suena pero este suena mejor :P, bueno aka les va!!

Lucybell

Me dejo tentar


Intro y verso:

g-----9----------9----9h11---9----------9-9/11-9--------
d----9-11-9h11--9-9h11------9-11-9h11--9--------11-9\\\-
a--11---------11----------11---------11-----------------
E-------------------------------------------------------

Disfrasar la frecuencia de roce......

g-----------6-------------------------------------------
d--------4h6-6-4\\\\\-----------------------------------
a-4-4-2h4-----------------------------------------------
E-------------------------------------------------------

Coro 1 y 2:

g-----------------------------7/9-7----------------------
d-----------------------5/7-5------9---------------------
a-4-4-4-4-3-3-3-7------------7---------------------------
E----------------5-5-5-5---------------------------------

Esto viene como despues de el silencio k hace la cancion
es parecido al coro 1 y 2 (solo en 2 partes pero despues
cambia bueno en fin.. aka esta la wea

coro 3:

g------------------------------------7/9-7----------------
d------------------------------5/7-5------9\\\\-----------
a-4/16\4-4-4-4-4-3-3-3-7------------7---------------------
E-----------------------5-5-5-5---------------------------

g---------------------------------------------------------------------------------------
d------------5-5------------------------------------------------------------------------
a-4-4-4-4-3-3---7-----------------------4-4-4-6-6-7-7-------------------4-4-4-6-6-7-7---
E----------------7-5-5-5-5-6-6-7-7-7-8-8-------------5-5-5-6-6-7-7-7-8-8----------------

g---------------------------------------------------------
d---------------------------------------------------------
a---------------------------------------------------------
E-5-5-5-7-8-9-9-9-9---------------------------------------

Bueno eso era todo, ojala q les suene bienpo
cualkien duda me lo mandan al mail : nic_ito1@
chaooo
Suggest correction
Give kudos to tab author, rate the tab!
1 2 3 4 5
comments
print report bad tab
guest
You may want to rate the tab now too:
select rating
Wanna post a correction for this tab? Suggest correction