Oops, an error
Loading. Please wait.

Mi Propia Cruz Bass Tab

357 views 1 this week
no commentswrite comment
1 2 3 4 5
3 more votes to show rating
add to favorites
launch autoscroll
font size
0
reset
guitar tuner
Autoscroll
slow
fast
+/-
esc
set tempo
stop
Help us to improve Ultimate-Guitar.com Take our survey!
×
++++++++++++++++++++++++++++
| Lucybell- Mi Propia Cruz |
++++++++++++++++++++++++++++

Tuning: EADG

Verse
"Tratar de ver con ojos de papel..."
1.
G|----------------------------------------|
D|----------------------------------------|
A|-3~----12~----8~----\5~----/10~----10\3-|
E|----------------------------------------|

Pre-Chorus
"Uno, uno, calendario no se cambia a tu favor..."
2.
G|------------------------------------------------------------|
D|------------------------------------------------------------|
A|-3-3-3-33-77-7-7-77-00-0-0-00-55-5-5-55-88-8-8-88-88-8-8-88-|
E|------------------------------------------------------------|

Verse
"Tratar de ser camino sin difraz..."
3.
G|----------------------------------------|
D|----------------------------------------|
A|-3~----12~----8~----\5~----/10~----10\3-|
E|----------------------------------------|

Pre-Chorus
"Uno, uno, correr no siempre te hace avanzar..."
4.
G|------------------------------------------------------------|
D|------------------------------------------------------------|
A|-3-3-3-33-77-7-7-77-00-0-0-00-55-5-5-55-88-8-8-88-88-8-8-88-|
E|------------------------------------------------------------|

Chorus
"No soy ciego al hablar..."
5.
G|-------------------------------------------------------------------------|
D|-------------------------------------------------------------------------|
A|-3-3-3-33--55-5-55-8-8-8-88--77-7-77-0-0-0-00-55-5-55-8-8-8-88-8-88-8\3--|
E|-------------------------------------------------------------------------|

6.
G|-------------------------------------------------------------------------------------------|
D|--------------------------------------------------------------------------------55-5-5~-55-|
A|-3-3-3-33--55-5-55-8-8-8-88--77-7-77-0-0-0-00-55-5-55-8-8-8-88-8-88-88-8-8-8-88------------|
E|-------------------------------------------------------------------------------------------|

Outro
"No me muero ni en mi propia cruz, no..."
7.
G|----------------------------------------|
D|----------------------------------------|
A|-3-3-3-33-77-7-7-77-00-0-0-00-55-5-5-55-|--x2
E|----------------------------------------|

Verso
"Tratar de hablar sonido irreal..."
8.
G|----------------------------------------|
D|----------------------------------------|
A|-3~----12~----11~------------------10\3-|
E|----------------------------------------|

Pre-Chorus
"Uno, uno, no todo se puede perdonar..."
9.
G|------------------------------------------------------------|
D|------------------------------------------------------------|
A|-3-3-3-33-77-7-7-77-00-0-0-00-55-5-5-55-88-8-8-88-88-8-8-88-|
E|------------------------------------------------------------|

Chorus
"No soy ciego al hablar..."
10.
G|-------------------------------------------------------------------------|
D|-------------------------------------------------------------------------|
A|-3-3-3-33--55-5-55-8-8-8-88--77-7-77-0-0-0-00-55-5-55-8-8-8-88-8-88-8\3--|
E|-------------------------------------------------------------------------|

11.
G|-------------------------------------------------------------------------------------------|
D|--------------------------------------------------------------------------------55-5-5~-55-|
A|-3-3-3-33--55-5-55-8-8-8-88--77-7-77-0-0-0-00-55-5-55-8-8-8-88-8-88-88-8-8-8-88------------|
E|-------------------------------------------------------------------------------------------|

Outro
"No me muero ni en mi propia cruz, no..."
12.
G|----------------------------------------|
D|----------------------------------------|
A|-3-3-3-33-77-7-7-77-00-0-0-00-55-5-5-55-|--x4
E|----------------------------------------|

13.
G|---------------|
D|---------------|
A|-3~----/15~----|
E|---------------|

Lyrics:


Tratar de ver con ojos de papel
El tiempo los insendiará
Uno, uno, calendario no se cambia a tu favor

Tratar de ser camino sin difraz
Tu rostro no soportará
Uno, uno, correr no siempre te hace avanzar

No soy ciego al hablar
No me muero en tu cruz
Ya no hay quien culpar
Y olvidar...

No me muero ni en mi propia cruz, no

Tratar de hablar sonido irreal
Tu hambre te hará gritar
Uno, uno, no todo se puede perdonar


+++++++++++++++++++++++++++++++++
| RaiLeff                       |
| Underground__Dora@Hotmail.Com |
+++++++++++++++++++++++++++++++++
Suggest correction
Give kudos to tab author, rate the tab!
1 2 3 4 5
comments
print report bad tab
guest
You may want to rate the tab now too:
select rating
Wanna post a correction for this tab? Suggest correction