Oops, an error
Loading. Please wait.

Mirate En Mi Tab

27 views 3 this week
no commentswrite comment
1 2 3 4 5
3 more votes to show rating
add to favorites
×
Save as Personal and add changes to this tab that will be seen only by you. Learn more ›
×
You can save this tab as Personal to edit and correct it or add notes. All changes will be seen only by you. Learn more »
save as personal
new!
launch autoscroll
font size
0
reset
how to read this tab
guitar tuner
Autoscroll
slow
fast
+/-
esc
set tempo
stop
Esta version es en vivo. 

Acordes
 
  [ch]E [ch]F#m[/ch]  FA[/ch]
e--------------
B-----3-----1--
G--1--4-----2--
D--2--5-----3--
A--2--5-----3--
E-----3-----1--


[ch]E[/ch]
En dos palabras creo ser
[ch]E[/ch]
El que demora el paso como el sol (dias)

e------------
B------------
G---6----6/4-
D------------
A------------
E------------

[ch]E[/ch]
cuando te abres veo la luz
[ch]E[/ch]
La que demora cuando debe iluminar (dias)

[ch]E FA[/ch]

[ch]Fm[/ch]
Siente mi alma muda
                      [ch]F[/ch]
siente que no se nada

[ch]E[/ch]
En dos palabras creo ser

e------------
B------------
G---6----6/4-
D------------
A------------
E------------

[ch]E[/ch]
El que se quiebra cuando ve gritar(vida)

e----------------
B---------------4
G---6----6/4--4--
D----------------
A----------------
E----------------

[ch]E[/ch]
Cuando me crees veo la luz
e------------
B------------
G---6----6/4-
D------------
A------------
E------------

[ch]E[/ch]
La que demora cuando debe iluminar (vida)


[ch]E [ch]F[/ch] FA#m[/ch]

[ch]F#m[/ch]
Siente mi alma muda
Siente que no se nada
Yo veo magia atenta
Mírate en mi

Solo:
e--------------------------------------------------
B---5h4--5h4--5h4--5h4--5h4--5h4--5h4--5h4--5h4-----
G---------------------------------------------------
D-----------16/14-----16/18-----16/18-----16/18-----
A---------------------------------------------------
E---------------------------------------------------


[ch]E [ch]F[/ch] FA#m[/ch]

[ch]F#m[/ch]
Siente mi alma muda
Siente que no se nada
Yo veo magia atenta
Mírate en mi

[ch]E[/ch] 

[ch]E FA[/ch] 
[ch]F#m[/ch]
Siente mi alma muda
Soy un payaso niño

[ch]E     MI [ch]F[/ch] FA#m[/ch]
Mirame

e-----------------------------------------
B------------------------4h5---4h5----4h5-
G-----------------------4-----4------4----
D-----------------------------------------
A-1-1-2-3-3-5-5-7-7-8---------------------
E-----------------------------------------

Nota: En el primer solo usen un 'Delay', o nada mas hagan el 
punteo en la 2da cuerda y toquen el otro pedaso del solo junto.
Suggest correction
Give kudos to tab author, rate the tab!
1 2 3 4 5
comments
print report bad tab
guest
Wanna post a correction for this tab? Suggest correction