Oops, an error
Loading. Please wait.

Rojo Eterno Tab

585 views 3 this week
no commentswrite comment
1 2 3 4 5
please rate
add to favorites
launch autoscroll
font size
0
reset
how to read this tab
guitar tuner
Autoscroll
slow
fast
+/-
esc
set tempo
stop
Help us to improve Ultimate-Guitar.com Take our survey!
×
Author
Std Tuning

Main Riff
-----------------------------|
-------------------2-4^5^4-0-|
-----2-4^6^4---2-4-----------|
--/4---------4---------------|
-----------------------------|
-----------------------------|

Riff A          Riff B                  Riff C
------          ---------------        -------|
------        ---------------        ---------|
------        ---------------        ---------|
-4/2~~        -44444444-4/2~~        -7/6~~---|
------        ---------------        ---------|
------        ---------------        ---------|

Riff D                                  Riff E
--7-7----------------        --4-4--4-4--4-4--4-4--4-4--4-4-|
------9-9------------        --5-4--5-4--5-4--5-4--5-4--5-4-|
----------9-9-8-8----        --6-4--6-4--6-4--6-4--6-4--6-4-|
------------------9~~        -------------------------------|
---------------------        -------------------------------|
---------------------        -------------------------------|

Intro:
Main Riff with Riff A
Main Riff with Riff B and Riff C
(Endings with Riff A and B-C alternate during the song)

         F#m
Me encerré
               A          B
recreé el escondite de infancia
      F#m
clausuré de raíz
     A         B       F#m-A-B...
como mi condición natural


Main Riff con Riff B
Main Riff con Riff D y Riff C X2

Decidí
intuir recorriendo palacios
desarmé
por correr cada paso a seguir
ataqué
como rey que asesina con gracia
No creí
ni lo pense como mi condición

Main Riff con Riff D y Riff C X 2
Riff #

F#m      A      B
Error va de mi mano
F#m      A      B
escamas en tus dedos
   F#m             A  B
mi carne entre tus uñas
   F#m           A  B
mi crimen rojo eterno
      F#m   A B
rojo eterno
   F#m A B
rojo enfermo
       F#m A B
rojo eterno
       F#m A B
rojo muerto

Outro
-----------------------------|
-----------------------------|
---3---------5---------------|
---4---------7---------------|
---4---------7--9-9-9-9-9~~~-|
-2----2-0--5-----------------|

para de gritar

para de gritar

Main Riff with Riff D (improvise on B)
Main Riff with Riff E

F#m      A      B
Error va de mi mano
F#m      A      B
escamas en tus dedos
   F#m             A  B
mi carne entre tus uñas
   F#m           A  B
mi crimen rojo eterno
      F#m   A B
rojo eterno
   F#m A B
rojo enfermo
       F#m A B
rojo eterno
Suggest correction new What's this?
You can suggest a correction to this tab. Community and Mods will review your correction and vote to approve or reject it.
comments
We did not receive enough feedback on this tab! Please rate:
print report bad tab
1 2 3 4 5
guest
You may want to rate the tab now too:
select rating
Please do not post tabs as comments. Select "correction" instead!