Oops, an error
Loading. Please wait.

Solo Crees Por Primera Vez Bass

version 1
version 1

Whole song

25 views 1 this week
no commentswrite comment
1 2 3 4 5
3 more votes to show rating
add to favorites
×
Save as Personal and add changes to this tab that will be seen only by you. Learn more ›
×
You can save this tab as Personal to edit and correct it or add notes. All changes will be seen only by you. Learn more »
save as personal
new!
launch autoscroll
font size
0
reset
guitar tuner
Autoscroll
slow
fast
+/-
esc
set tempo
stop
NyC 10000000% siempre al limite


Intro: x2

4:--------------------------------------
3:--1-1---2-2---------------------------
2:-------------0~~~-0-0-----------------
1:--------------------------------------

Verso I: x2

4:---1-1-1-1-1-1-1-1--0-0-0-------------------------
3:-------------------------------------------5--5-5-
2:--------------------------0-2-2-0-2/7--5-5--------
1:--------------------------------------------------

pre-coro I

4:--------------------------------------
3:-1-1-1-1-1..-3-3-1--1-1-1-1..3-3-5~---
2:--------------------------------------
1:--------------------------------------

Coro I

4:-------------------------------------------------
3:----------------7-7-7-7--------------------------
2:-0-0..-0/7-7-7--------5-5-5\2-2../7-7-7----------
1:-------------------------------------------------

4:--------------------------------------
3:-1-1--3-3------1-1--3-3---------------
2:-----------0~-----------0~------------
1:--------------------------------------

verso II:

4:---1-1-1-1-1-1-1-1--0-0-0-------------------
3:--------------------------------------------
2:--------------------------0-2-2-0-2/7-7-7-7-
1:--------------------------------------------

--------------------------------------
--------------------------------------
--5-5---------------------------------
------7--7-5-7/11-11-12-11\7----------

4:---1-1-1-1-1-1-1-1--0-0-0-------------------
3:--------------------------------------------
2:--------------------------0-2-2-0-2/7-7-7-7-
1:--------------------------------------------

4:------------------------------------
3:------------------------------------
2:-5-5--------------------------------
1:-----7--7-5-7--7--7-5-7-------------

Pre-coro x1
Coro I: x1

Coro II:


4:-------------------------------------------------
3:----------------7-7-7-7--------------------------
2:-0-0..-0/7-7-7--------5-5-5\2-2../7-7-7----------
1:-------------------------------------------------

4:--------------------------------------
3:-1-1--3-3------1-1--3-3---------------
2:-----------0~-----------0~------------
1:--------------------------------------

4:--------------------------------------
3:-1-1--3-3------1-1--3-3---------------
2:-----------0~-----------0~------------
1:--------------------------------------

4:-------------------------3-3-3-0-0-0--5-5-5..----
3:----------------7-7-7-7--------------------------
2:-0-0..-0/7-7-7-----------------------------------
1:-------------------------------------------------

4:--------------------------------------
3:-1-1--3-3-5--5-5-3-3-5-5-3-5-5--------
2:--------------------------------------
1:--------------------------------------

4:-------------------4-4-5-4------------
3:-1-1--3-3-5--5-3-5--------------------
2:--------------------------------------
1:--------------------------------------

4:--------------------------------------
3:-1-1--3-3-5--5-5-3-3-5-5-3-5-5--------
2:--------------------------------------
1:--------------------------------------

4:-----------------------------
3:-1-1--3-3--------------------
2:-----------0~----------------
1:-----------------------------
Suggest correction
Give kudos to tab author, rate the tab!
1 2 3 4 5
comments
print report bad tab
guest
Wanna post a correction for this tab? Suggest correction