Oops, an error
Loading. Please wait.

Solo Crees Por Primera Vez Bass Tab

version 2
version 2

Whole song

2 views 1 this week
no commentswrite comment
1 2 3 4 5
3 more votes to show rating
add to favorites
launch autoscroll
font size
0
reset
guitar tuner
×
Best way to learn
"Solo Crees Por Primera Vez"
Autoscroll
slow
fast
+/-
esc
set tempo
stop
INTRO
G|-----------------------------------|
D|-----------------------------------|
A|-11---33---5---5-55----11---33-----|
E|-----------------------------------|

VERSO
G|----------------------------------------------------|
D|----------------------------------------------------|
A|-8-8-8-8-8-8-8-8-8-7--7-7-7-77-7/12-12-12-10-10-5---| x2
E|----------------------------------------------------|
  Debes flotar....

PUENTE
G|---------------------------------------------------------|
D|---------------------------------------------------------|
A|-1-1-1-1-1-1-1-1-1-1-3-33331-1-1-1-1-1-1-1-1-3-3333-5----|
E|---------------------------------------------------------|
  La presa...

PRE-CORO
G|------------------------------------------------------------|
D|------------------------------------------------------------|
A|-55-5/9-99-7-777/101010101010-7-777-777/1212121212121212----|
E|------------------------------------------------------------|
  No fue traición.....

CORO
G|--------------------------------------|
D|--------------------------------------|
A|-11---33---5---5-55-55---11---33---5--|
E|--------------------------------------|
  Sólo crees...            Sólo crees...

VERSO
G|-------------------------------------------------------------------------|
D|-----------------------------1210------------------------19-1917---------|
A|-8-8-8-8-8-8-8-8-8-7/12-1210-----12-10-12-12-12/17-19-17--------1919-17--|
E|-------------------------------------------------------------------------|
  Debes marcar....

G|--------------------------------------------------------------|
D|--------------------------------------------------------------|
A|-8-8-8-8-8-8-8-8-8-7--7-7-7-77-7/12-12-12-10-10-5-5-55-77-55--|
E|--------------------------------------------------------------|
  Debes atar....

PUENTE
G|---------------------------------------------------------|
D|---------------------------------------------------------|
A|-1-1-1-1-1-1-1-1-1-1-3-33331-1-1-1-1-1-1-1-1-3-3333-5----|
E|---------------------------------------------------------|
  La presa...

PRE-CORO
G|------------------------------------------------------------|
D|------------------------------------------------------------|
A|-55-5/9-99-7-777/101010101010-7-777-777/1212121212121212----|
E|------------------------------------------------------------|
  No fue traición.....

CORO
G|----------------|
D|----------------|
A|-11---33---5----|
E|----------------|
  Sólo crees...

PRE-CORO
G|------------------------------------------------------------|
D|------------------------------------------------------------|
A|-55-5/9-99-7-777/101010101010-7-777-777/1212121212121212----|
E|------------------------------------------------------------|
  No fue traición.....

CORO
G|----------------------------------------|
D|----------------------------------------|
A|-11---33---5---5-55-7777---11---33---5--|
E|----------------------------------------|
  Sólo crees...              Sólo crees...

INTERMEDIO
G|----------------------------------------------------|
D|----------------------------------------------------|
A|-55-5/9-99-7-777/101010101010-7-777-777-00000000----|
E|----------------------------------------------------|

CORO
G|---------------------------|
D|---------------------------|
A|-11---33---5-55h77-5h7-5h7-|
E|---------------------------|
  Sólo crees...

CORO
G|---------------7-5-------|
D|------------------75-----|
A|-11---33---5-55-----7-5--|
E|-------------------------|
  Sólo crees...

CORO
G|--------------------------|
D|--------------------------|
A|-11---33---5-55/77-77-555-|
E|--------------------------|
  Sólo crees...

CORO
G|----------------|
D|----------------|
A|-11---33---5----|
E|----------------|
  Sólo crees por primera vez.

Este es el bajo adaptado de las diferentes versiones en vivo aunque se parece mucho al
de la canción de estudio pero este tiene mas arreglos por lo que suena mucho mejor, estos
arreglos suenan casi siempre cuando Lucybell toca la canción en vivo. Esta muy bueno y fácil de
tokar, espero que lo disfruten. Un abrazo!
--- EdgE ---
Suggest correction
Give kudos to tab author, rate the tab!
1 2 3 4 5
comments
print report bad tab
guest
You may want to rate the tab now too:
select rating
Wanna post a correction for this tab? Suggest correction