Oops, an error
Loading. Please wait.

Tropezar Al Andar Bass Tab

7 views 1 this week
no commentswrite comment
1 2 3 4 5
3 more votes to show rating
add to favorites
launch autoscroll
font size
0
reset
guitar tuner
×
Best way to learn
"Tropezar Al Andar"
Autoscroll
slow
fast
+/-
esc
set tempo
stop
(al 100%) NyC espero que les guste


intro: solo syntetizador

4:--5-5--2-5-2---7--9--10-\-----------------------
3:------------------------------------------------
2:------------------------------------------------
1:------------------------------------------------

4:--5-5-5-5-5-5-----------------------------------
3:--------------7-7-7---4-4-4-4--5-5-5-5----------
2:------------------------------------------------
1:------------------------------------------------

4:------------------------------------------------
3:------------------------------------------------
2:---7-7-7-4-4-4--4---2--4------------------------
1:------------------------------------------------

4:--5-5-5-5-5-5-----------------------------------
3:--------------7-7-7---4-4-4-4-5-5-5-5-----------
2:------------------------------------------------
1:------------------------------------------------

4:------------------------------------------------
3:------------------------------------------------
2:--7-5-7------7-5--------------------------------
1:---------7-7------------------------------------

4:--5-5-5-5-5-5-----------------------------------
3:--------------7-7-7---4-4-4-4--5-5-5-5----------
2:------------------------------------------------
1:------------------------------------------------

4:------------------------------------------------
3:------------------------------------------------
2:---7-7-7-4-4-4--4---2--4------------------------
1:------------------------------------------------

4:--5-5-5-5-5-5-----------------------------------
3:--------------7-7-7---4-4-4-4--5-5-5-5----------
2:------------------------------------------------
1:------------------------------------------------

4:------------------------------------------------
3:--0-0-0-0-0-0-0-0-0-0-0-0-0-0-/-----------------
2:-------------------------------12-12-12-12-12---
1:------------------------------------------------

4:--2-2-x-2--------2-2-x-2------------------------
3:---------4-4-2-4---------4-4-2-4---0-0-0-0-0-0--
2:------------------------------------------------
1:------------------------------------------------

4:--5------2-2-x-2---------2-2-x-2----------------
3:----7-5----------4-4-2-4---------4-4-2----------
2:--------------------------------------2-4-5--\--
1:------------------------------------------------

4:--5-5-5-5-5-5-----------------------------------
3:--------------7-7-7---4-4-4-4--5-5-5-5----------
2:------------------------------------------------
1:------------------------------------------------

4:------------------------------------------------
3:------------------------------------------------
2:---7-7-7-4-4-4--4---2--4------------------------
1:------------------------------------------------

4:--5-5-5-5-5-5-----------------------------------
3:--------------7-7-7---4-4-4-4--5-5-5-5----------
2:------------------------------------------------
1:------------------------------------------------

4:------------------------------------------------
3:------------------------------------------------
2:--7-5-7------7-5--------------------------------
1:---------7-7------------------------------------

4:--5-5-5-5-5-5-----------------------------------
3:--------------7-7-7---4-4-4-4--5-5-5-5-----------
2:------------------------------------------------
1:------------------------------------------------

4:------------------------------------------------
3:------------------------------------------------
2:---7-7-7-4-4-4--4---2--4------------------------
1:------------------------------------------------

4:--5-5-5-5-5-5-----------------------------------
3:--------------7-7-7---4-4-4-4--5-5-5-5-----------
2:------------------------------------------------
1:------------------------------------------------

4:------------------------------------------------
3:--0-0-0-0-0-0-0-0-0-0-0-0-0-0-/-----------------
2:-------------------------------12-12-12-12-12---
1:------------------------------------------------

4:--2-2-x-2--------2-2-x-2------------------------
3:---------4-4-2-4---------4-4-2-4---0-0-0-0-0-0--
2:------------------------------------------------
1:------------------------------------------------

4:--5------2-2-x-2--------2-2-x-2-----------------
3:----7-5----------4-4-2-4-------4-4-2------------
2:-------------------------------------2-4-5--\---
1:------------------------------------------------

4:--5-5-5-5-5-5-----------------------------------
3:--------------7-7-7---4-4-4-4--5-5-5-5----------
2:------------------------------------------------
1:------------------------------------------------

4:------------------------------------------------
3:------------------------------------------------
2:---7-7-7-4-4-4--4---2--4------------------------
1:------------------------------------------------

4:--5-5-5-5-5-5-----------------------------------
3:--------------7-7-7---4-4-4-4--5-5-x-5-5-x-5-\0-
2:------------------------------------------------
1:------------------------------------------------
Suggest correction
Give kudos to tab author, rate the tab!
1 2 3 4 5
comments
print report bad tab
guest
You may want to rate the tab now too:
select rating
Wanna post a correction for this tab? Suggest correction