Oops, an error
Loading. Please wait.

Ver Bass Tab

version 1
version 1

Whole song

67 views 1 this week
no commentswrite comment
1 2 3 4 5
3 more votes to show rating
add to favorites
launch autoscroll
font size
0
reset
guitar tuner
×
Best way to learn
"Ver"
Autoscroll
slow
fast
+/-
esc
set tempo
stop
espero y les guste

esta rola empieza con la lira y el teclado
y despues sigue con  acorde de (mi)

mi:
4:0-0-0-0--------
3:--------5/7----
2:------------6--
1:---------------


y estos son los versos:
la-do#m-fa#m-fa-mi

   la  do#m    fa#m  fa    mi
4:-5-----------0-2---1-----0-0-0-0--------
3:---7-4-----4-----4---3-3---------5/7----
2:-------6-6---------------------------6--
1:----------------------------------------

coro:
re-fa#m-la
   re                                fa#m              la
4:-----5-----5-----5-----5-----------2-2-0-2-2-0-2-2---5-7--------------
3:-5-5---5-5---5-5---5-5---5/7-5-4-2-----------------4-----4-5-7--------
2:---------------------------------------------------------------4-6-7--
1:----------------------------------------------------------------------


solo:
mi

4:------------------5/7--------          -------------------------
3:-7-7-5-7--7-7-5-7-----5/7----          -7-7-5-7--5-7---7--------          
2:--------------------------6--          --------------7---9-7-6--          
1:-----------------------------  3 times -------------------------

ver: bass tab
gracias al chuy, esteavn de (elixir)y al marcos por tocar la rola
para el convivio y tributo a lucybell en san ysidro ca.
gracias a claudio por cantar el final de la rola con nosotros.
Suggest correction
Give kudos to tab author, rate the tab!
1 2 3 4 5
comments
print report bad tab
guest
You may want to rate the tab now too:
select rating
Wanna post a correction for this tab? Suggest correction