Oops, an error
Loading. Please wait.

Ver Bass Tab

version 2
version 2

Whole song

11 views 1 this week
no commentswrite comment
1 2 3 4 5
3 more votes to show rating
add to favorites
launch autoscroll
font size
0
reset
guitar tuner
Autoscroll
slow
fast
+/-
esc
set tempo
stop
Help us to improve Ultimate-Guitar.com Take our survey!
×
Bueno esta seria otra de mis colaboraciones a esta pagina ke ta piooola
y aparte ke esta cancion me gusta calejta uy pero weno serapio
aki les va el bajo de la cancion , ojala ke te guste po oe!
( eso si la sake el bajo con la guitarra pero si lo tokay en bajo va sonar puleeento)


intro:

G-------------------------------------------------------------------
D-------------------------------------------------------------------
A-------------------------------------------------------------------
E-0-x-0-0-0-(10)-10/12\1p0--0-x-0-0-0-(10)-10/12\1p0----------------

Verso:2x

G--------------------------------------------------------------------
D-----6-2------------------------------------------------------------
A--7-4---4-4-3-(0)---------------------------------------------------
E-5-------2-1-----1-0-x-0-0-0-(10)-10/12\1p0-0-x-0-0-0-(10)-10/12\1p0

Coro:

G--------------------------------------------------------------------
D--7-7-7-7-7-7-7----------------------------------4-6-7-7-7-7-7-7-7--
A-5-5---5---5---5-5/7-5----------------------4-5-7-----5---5---5---5-
E----------------------7-5\2-2-2-x-2-x-2-2-5-7-----------------------

G--------------------------------------------------------------------
D-7-7----------------------------------------------------------------
A----5-5/7-5-------------------------4-4-4-4-x-5-5-5-5-5-5-5-5-5\1p0-
E-----------7-5\2-2-x-2-x-2-5-5-5-5-x--------------------------------

G--------------------------------------------------------------------
D--------------------------------------------------------------------
A--------------------------------------------------------------------
E-1-1-1p0------------------------------------------------------------

Intro

Verso 2x

Coro

G--------------------------------------------------------------------
D--------------------------------------------------------------------
A--------------------------------------------------------------------
E-0-x-0-x-0-x-0-x-0-x------------------------------------------------

Interlude:

G--------------------------------------------------------------------
D----------------------6-------------------------------------6-------
A-7-7-5-7-7-7-5-7---5h7-7-7-5-7-7-7-5-7-7-7-5-7-7-7-5-7---5h7-7-7-5-7
E----------------5h7-----------------------------------5h7-----------

G--------------------------------------------------------------------
D-6-x-7/9-7---------------------6------------------------------------
A----------7-7-5-7-7-7-5-7---5h7--7-7-5-7-7-7-5-7-7-7-5-7-7-7-5-7----
E-------------------------5h7----------------------------------------

G--------------------------------------------------------------------
D-------6------------------------------------------------------------
A----5h7-7-7-5-7-----------------------------------------------------
E-5h7----------------------------------------------------------------


Coro 2 ( y ver!) :

G---------------------------------------------------------------------
D---------------------4-6-7-7-7-7-7-7-7-7-7---------------------------
A----------------4-5-7-----5---5---5---5---5-5/7-5--------------------
E-2-2-2-2-2-2-5-7---------------------------------7-5\2-2-2-2-2-2-2---

G---------------------------------------------------------------------
D---------4-6-7-7-7-7-7-7-7-7-7---------------------------------------
A----4-5-7-----5---5---5---5---5/7-5-------------------------4-4-5-5-7
E-5-7-------------------------------7-5\2-2-2-2-2-2-2-5-5-7-7---------


G---------------------------------------------------------------------
D--4-4-6-6-7-7-7-7-7-7-7-7-7-7----------------------------------------
A-7-----------5---5---5---5----5/7-5------------------------4-4-4-4---
E-----------------------------------7-5\2-2-2-2-2-2-5-5-5-5-----------

G---------------------------------------------------------------------
D---------------------------------------------------------------------
A-5-5-5-5-5-5-5-5\1p0-------------------------------------------------
E----------------------0-x-0-x-0x-0-x-0-x-----------------------------

Interlude: 1x


Bueno yo encuentro ke este tab esta pero onda 99,9% bien kisas tiene su pifia
pero suena muy bien.
ojala ke les guste y cualkier duda manden un mail : nic_ito1@

oe y ojala ke te guste po =)
Suggest correction
Give kudos to tab author, rate the tab!
1 2 3 4 5
comments
print report bad tab
guest
You may want to rate the tab now too:
select rating
Wanna post a correction for this tab? Suggest correction