Oops, an error
Loading. Please wait.

Roll Out Bass Tab

version 1
version 1

Whole song

Interactive

1,286 views 1 this week
3 commentsread comments
1 2 3 4 5
1 last vote to show rating
add to favorites
launch autoscroll
font size
0
reset
guitar tuner
Autoscroll
slow
fast
+/-
esc
set tempo
stop
Help us to improve Ultimate-Guitar.com Take our survey!
×
G-----------2--3--2-----------------------------------------
D-----0--3--------------------------------------------------
A--0--------------------------------------------------------
E-----------------------------------------------------------

Keep repeating until end of song!!!!
E-mail me with any corrections!
Suggest correction
Give kudos to tab author, rate the tab!
1 2 3 4 5
comments
print report bad tab
3 comments total.
0 reply
mh182 30 Jun 03, 2004 12:00 AM

yea this tab is really good i tabbed it the same way


although i find it hard to keep the melody

0 reply
1_string_wonder 10 Dec 18, 2007 01:40 AM

G-----------2---3--2----------------------------------------
D-----0--3----0-------------------------------------------
--
A--0--------------------------------------------------------
E-----------------------------------------------------
------

it sounds better with the extra open and you don't get messed up on the timing as much.



-1 reply
1_string_wonder 10 Dec 18, 2007 01:42 AM

G-----2---3--2-----
D-----0--3----0-----
A--0-----
----
E-----

it sounds better with the extra open and you don't get messed up on
the timing as much.

guest
You may want to rate the tab now too:
select rating
Wanna post a correction for this tab? Suggest correction