Oops, an error
Loading. Please wait.

Roll Out Tab

version 1
version 1

Whole song

Interactive

5,097 views 1 this week
8 commentsread comments
1 2 3 4 5
x 11
add to favorites
launch autoscroll
font size
0
reset
how to read this tab
guitar tuner
Autoscroll
slow
fast
+/-
esc
set tempo
stop
Help us to improve Ultimate-Guitar.com Take our survey!
×
Author
Tabbed By: ????
Artist:    Ludacris
Album:     Word Of Mouf

Just Repeat This Through The Song
E-----------------------------------------------------------
B-----------------------------------------------------------
G----------2--3--2------------------------------------------
D----0--3---------------------------------------------------
A--0--------------------------------------------------------
E-----------------------------------------------------------

If there are any mistakes, please feel free to post.
Suggest correction
comments
print report bad tab
8 comments total. Showing first comments.
+1 reply
yanyanislovski 0 Feb 09, 2002 12:00 AM

almost on the money but sound really good

-1 reply
hky1148 10 Jan 27, 2003 12:00 AM

E---------------------------------------
B---------------------------------------
G------------2--3--2--------------------
D----0--3--5----------------------------
A--0------------------------------------
E---------------------------------------
there should be a 5 after the 3.

-2 reply
HUGEmunkeynutz 10 Oct 03, 2005 08:43 AM

Ur both wrong this is right:
E---------------------------------------
B---------------------------------------
G------------2--3--2--------------------
D----0--3--7----------------------------
A--0------------------------------------
E---------------------------------------

guest
You may want to rate the tab now too:
select rating
Wanna post a correction for this tab? Suggest correction