Oops, an error
Loading. Please wait.

Cyborgs Vs Robots Tab

by Ludo
248 views 3 this week
1 commentread comment
1 2 3 4 5
excellent!
x 3
add to favorites
launch autoscroll
font size
0
reset
how to read this tab
guitar tuner
Autoscroll
slow
fast
+/-
esc
set tempo
stop
Help us to improve Ultimate-Guitar.com Take our survey!
×
Author
Difficulty
intermediate
LUDO
CYBORGS VS ROBOTS
STANDARD

Intro and kinda main riff (DISTORTION)
e|-------------------------------------------------------------|
B|-------------------------------------------------------------|
G|-------------------------------------------------------------|
D|-------------------------5~-7~-------------------------------|
A|-5-7-7-7-7-7-5-7-7-7-7-7-5~-7~-5-7-7-7-7-7-5-7---------------|
E|-------------------------3~-5~-----------------6-5-3-5-3-5-0-|
||                                                      first ending    second ending
e|-----------------------------------------------|    |----12~---12~-|----------------|
B|-----------------------------------------------|    |----12~---12~-|--[SLOWS DOWN]--|
G|-----------------------------------------------|    |--------------|----------------|
D|-------------------------9~-8~-----------------| x2 |--------------|----------------|
A|-5-7-7-7-7-7-5-7-7-7-7-7-9~-8~-5-7-7-7-7-7-5-7-|    |-00----00-----|-7-6-5----------|
E|-------------------------7~-6~-----------------|    |-00----00-----|-------5--3--0--|
                                                        **    **



Verse 1 0:16 (TURN TONE DOWN)
e|-10~-------12~------------------10~-------12~---------------------------------|
B|-9~-----------12~--------------9~------------12~------------------------------|
G|-9~-------------12h14~--------9~---------------12h14~-------------------------|
D|----------------------------------------------------------///-----------------|
A|----------------------------------------------------------///PICKSLIDE--------|
E|------------------------------------------------------------------------------|



Chorus 0:30 (DISTORTION AGAIN)
e|--------------------------------------------------------------------------------------------|
B|--------------------------------------------------------------------------------------------|
G|--------------------------------------------------------------------------------------------|
D|-7~-7~-7~--7~-6~-5~-5~-5~-------------------------------------------------------------------|
A|-7~-7~-7~--7~-6~-5~-5~-5~----5-7-7-7-7-7-5-7-7-7-7-7-5-7-7-7-5-7-7-7-7-7-5-7----------------|
E|-5~-5~-5~--5~-4~-3~-3~-3~----------------------------------------------------6-5-3-5-3-5-0--|
||
e|----------------------------------------------------------------------------------12~-------|
B|----------------------------------------------------------------------------------12~-------|
G|--------------------------------------------------------------------------------------------|
D|-7~-7~-7~--7~-6~-5~-5~-5~-------------------------------------------------------------------|
A|-7~-7~-7~--7~-6~-5~-5~-5~----5-7-7-7-7-7-5-7-7-7-7-7-5-7-7-7-5-7-7-7-7-7-5-7-0000-----------|
E|-5~-5~-5~--5~-4~-3~-3~-3~----------------------------------------------------0000-----------|
                                                                               ****



Verse 2 0:45 (TONE DOWN AGAIN)
e|-------------------------------------|-10~-------12~-----------------10~------12~---------------|
B|-------------------------------------|-9~-----------12~-------------9~-----------12~------------|
G|--7~-------9~-------7~-------9~------|-9~-------------12h14~-------9~--------------12h14~-------|
D|-------------------------------------|------------------------------------------------------\\\-|
A|-------------------------------------|------------------------------------------------------\\\-|
E|-------------------------------------|----------------------------------------------------------|



               PLAY CHORUS x2 ( 1:14 - 1:44)



Interludey thing 1:44 (DISTORTION)
e|---------------------------------------------------|
B|---------------------------------------------------|
G|---------------------------------------------------|
D|---------5~-7~-----------------------------9~-8~---|
A|---------5~-7~-----------------------------9~-8~---|
E|---------3~-5~--------6-5-3-5-3-5-0--------7~-6~---|
THEN
1:51                Don't play 3rd time ↓          ↓ 16 STRUMS EACH ↓   ↓ 4 STRUMS EACH ↓
e|------------------------------------------------|--11---12---13---14-|--15-16-17-18b-----|
B|-9-9-9~---10-10-10~---11-11-11~--(10-10-10~)----|--8----9----10---11-|--12-13-14-15b-----|
G|-x-x-x~---x--x--x~----x--x--x~---(x--x--x~-)-x3-|--------------------|-------------------|
D|-6-6-6~---7--7--7~----8--8--8----(7--7--7~-)----|--------------------|-------------------|
A|------------------------------------------------|--------------------|-------------------|
E|------------------------------------------------|--------------------|-------------------|



Synth to Guitar 2:21 - 2:35 
e|------------------------------------|
B|------------------------------------|
G|------------------------------------|
D|-6--6--6--6-7-6-----6--6--6---------| x2
A|-----------------------------7-9-7--|
E|------------------------------------|



      REPEAT THE VERSE ( 2:35 - 2:50)
        WITH NO PICK-SLIDE AT END



      THEN REPEAT THE CHORUS x2
         ( 2:50 - 3:20)



Outro 3:20
e|----------------|
B|----------------|
G|----------------|
D|----------------|
A|--7-6-5---------|
E|--------5-3-0---|
 WEOW WEOW WEW WOW WOW WOW!

DONE!
Suggest correction
Give kudos to tab author, rate the tab!
1 2 3 4 5
comments
print report bad tab
1 comment total.
0 reply
deathfromala 3,260 wrote on March 27 2013, 04:50 am

-12-----------
---12---------
--------------
------12h14---
--------------
--------------

in verse, my bad

guest
You may want to rate the tab now too:
select rating
Wanna post a correction for this tab? Suggest correction