Oops, an error
Loading. Please wait.

Drunken Lament tab

version 1
version 1

Whole song

by Ludo
6,456 views 6 this week
1 commentread comment
1 2 3 4 5
1 last vote to show rating
add to favorites
×
Save as Personal and add changes to this tab that will be seen only by you. Learn more ›
×
You can save this tab as Personal to edit and correct it or add notes. All changes will be seen only by you. Learn more »
launch autoscroll
font size
0
reset
how to read this tab
guitar tuner
edit
Autoscroll
slow
fast
+/-
esc
set tempo
stop
Author
Difficulty
-----------------------------------------------------------------------------
                             Drunken Lament - LUDO
-----------------------------------------------------------------------------
Tabbed by: Tony Helm aka xLoneMythx
Email: xlonemythx@yahoo.com

Tuning: Standard

This is what I got out of an acoustic performance.
I didn't show the strum pattern.


Intro

e|-----------------------------|
B|-----------------5-----5-----|
G|-----1-----5-----6-----6-----|
D|-----2-----6-----6-----6-----|
A|-----2-----6-----4-----4-----|
E|-----0-----4-----------------|

e|-----4---4---4---4---4---4---4---4----|
B|----5---5---5---5---5---5---5---5-----|
G|---6---6---5---5---4---4---5---5------|
D|--------------------------------------|  x 2
A|--------------------------------------|
E|--------------------------------------|

Verse 1

e|-----4---4---4---4---4---4---4---4---4---4---4---4---4---4---4---4---|
B|----5---5---5---5---5---5---5---5---5---5---5---5---5---5---5---5----|
G|---6---6---6---6---5---5---5---5---4---4---4---4---5---5---5---5-----|
D|---------------------------------------------------------------------|
A|---------------------------------------------------------------------|
E|---------------------------------------------------------------------|

e|-----4---4---4---4---4---4---4---4---4---4---4---4---4---4---4---4---|
B|----5---5---5---5---5---5---5---5---5---5---5---5---5---5---5---5----|
G|---6---6---6---6---5---5---5---5---4---4---4---4---3---3---3---3-----|
D|---------------------------------------------------------------------|
A|---------------------------------------------------------------------|
E|---------------------------------------------------------------------|

or if you wanted to play chords...

e|--------------------------|
B|--------------------------|
G|-----6-----5-----4-----5--|
D|-----6-----5-----4-----5--|
A|-----4-----3-----2-----3--|
E|--------------------------|

e|--------------------------|
B|--------------------------|
G|-----6-----5-----4-----3--|
D|-----6-----5-----4-----3--|
A|-----4-----3-----2-----1--|
E|--------------------------|

Prechorus 1

e|--------------|
B|--------------|
G|----3----2----|
D|----4----4----|
A|----4----4----|
E|----2----2----|

Chorus 1

e|-----------------------------|
B|-----------------5-----1-----|
G|-----1-----5-----6-----2-----|
D|-----2-----6-----6-----2-----|  x3 then
A|-----2-----6-----4-----0-----|
E|-----0-----4-----------------|

e|-------------------|
B|---------5---------|
G|----1----6----5----|
D|----2----6----6----|
A|----2----4----6----|
E|----0---------4----|

Postchorus

e|---4---4---4---4---4---4---4---4---|
B|--5---5---5---5---5---5---5---5----|
G|-6---6---5---5---4---4---5---5-----|
D|-----------------------------------|
A|-----------------------------------|
E|-----------------------------------|

Verse 2

e|-----4---4---4---4---4---4---4---4---4---4---4---4---4---4---4---4---|
B|----5---5---5---5---5---5---5---5---5---5---5---5---5---5---5---5----|
G|---6---6---6---6---5---5---5---5---4---4---4---4---5---5---5---5-----|
D|---------------------------------------------------------------------|
A|---------------------------------------------------------------------|
E|---------------------------------------------------------------------|

e|-----4---4---4---4---4---4---4---4---4---4---4---4---4---4---4---4---|
B|----5---5---5---5---5---5---5---5---5---5---5---5---5---5---5---5----|
G|---6---6---6---6---5---5---5---5---4---4---4---4---3---3---3---3-----|
D|---------------------------------------------------------------------|
A|---------------------------------------------------------------------|
E|---------------------------------------------------------------------|

Prechorus 2

e|--------------|
B|--------------|
G|----3----2----|
D|----4----4----|
A|----4----4----|
E|----2----2----|

Chorus 2

e|-----------------------------|
B|-----------------5-----1-----|
G|-----1-----5-----6-----2-----|
D|-----2-----6-----6-----2-----|  x3 then
A|-----2-----6-----4-----0-----|
E|-----0-----4-----------------|

e|-------------------|
B|---------5---------|
G|----1----6----5----|
D|----2----6----6----|
A|----2----4----6----|
E|----0---------4----|


Bridge

e|-----
B|---5-
G|---6-
D|---6- strummed for a while then
A|---4-
E|-----


e|-------------------|
B|---5---------------|
G|---6---6---9---5---|
D|---6---7---9---6---| x2 then
A|---4---7---7---6---|
E|-------5-------4---|

e|-------------------|
B|-------------------|
G|---5---6-----5-----|
D|---6---7-----7-----| each of these are strummed at different intervals
A|---6---7-----7-----|
E|---4---5-----5-----|


Final Chorus

e|-----------------------------|
B|-----------------5-----1-----|
G|-----1-----5-----6-----2-----|
D|-----2-----6-----6-----2-----|  x3 then
A|-----2-----6-----4-----0-----|
E|-----0-----4-----------------|

e|-------------------|
B|---------5---------|
G|----1----6----5----|
D|----2----6----6----|strum the last chord for a while then
A|----2----4----6----|
E|----0---------4----|

End on

e|-----|
B|-----|
G|---5-|
D|---6-|
A|---6-|
E|---4-|

            
            
Suggest correction
Creating personal tab
Creating personal tab
You can edit any tab online and save it as your Personal.

You can edit, replace or remove any tab part or add personal notes – all changes will be seen only by you.

Personal tabs can be accessed anytime from any device, even offline.
Learn more »
Give kudos to tab author, rate the tab!
1 2 3 4 5
comments
print report bad tab
1 comment total.
0 reply
rocknroll22 203 Feb 21, 2008 04:04 PM

very nice. any chance at a lead for the intro?

guest
You may want to rate the tab now too:
select rating
Wanna post a correction for this tab? Suggest correction