Oops, an error
Loading. Please wait.

Girls On Trampolines bass

version 1
version 1

Whole song

Interactive

by Ludo
1,905 views 1 this week
1 commentread comment
1 2 3 4 5
x 3
add to favorites
×
Save as Personal and add changes to this tab that will be seen only by you. Learn more ›
×
You can save this tab as Personal to edit and correct it or add notes. All changes will be seen only by you. Learn more »
launch autoscroll
font size
0
reset
guitar tuner
edit
Autoscroll
slow
fast
+/-
esc
set tempo
stop
Difficulty
intermediate
Artist: Ludo
Song: Girls on Trampolines
Tabber: Nooby32

Intro
G----------------------------------------------------------------------------|
D------------------------------------3333------------------------------------|
A-55555555-3333-0000---55555555-3333--------55555555-3333-0000-1111-3333-----|
E------------------------------------------------------------------------1---|

Verse
G------------------------------------------------------------|
D------------------------------------------------------------|
A---0-1-2-3-0-1-2-3-0-1-2-3-----0-1-2-3-3-1-0-1-3-1-0--------|
E-1-------------------------1-1-----------------------1------|

G------------------------------------------------------------|
D------------------------------------------------------------|
A---0-1-2-3-0-1-2-3-0-1-2-3-3-0-0-1-3-1-0--------------------|
E-1---------------------------------------3-1-1-1-1-4//1-----|

Chorus

G---------------------------------------------------------------|
D---------------------------------------------------------------|
A----------11111111----------33333333---------------------------|
E-11111111----------11111111------------------------------------|

G---------------------------------------------------------------|
D---------------------------------------------------------------|
A----------11111111-3333-1111-----------------------------------|
E-11111111--------------------11111111--------------------------|

Bridge x2

G-----------3-3//2//0-----------5-3-2-----------3---------5-3-2-------|
D---1//2//3-----------3-1//2//3-------3-1//2//3---1//2//3-------3-----|
A---------------------------------------------------------------------|
E-1---------------------------------------------------------------0-1-|

            
            
Suggest correction
Creating personal tab
Creating personal tab
You can edit any tab online and save it as your Personal.

You can edit, replace or remove any tab part or add personal notes – all changes will be seen only by you.

Personal tabs can be accessed anytime from any device, even offline.
Learn more »
Give kudos to tab author, rate the tab!
1 2 3 4 5
comments
print report bad tab
1 comment total.
0 reply
Fatty Matty 10 Jan 09, 2008 02:47 PM

Dude this is absofruitly amazing. Greatest tab I've ever seen. Rock on little freedom fighter. Getting Aids is NOT good.
There's something about the Foo Fighters that tickles me green. Good Job.

guest
Wanna post a correction for this tab? Suggest correction