Oops, an error
Loading. Please wait.

Hum Along tab

version 2
version 2

Whole song

by Ludo
2,367 views 1 this week
no commentswrite comment
1 2 3 4 5
x 3
add to favorites
×
Save as Personal and add changes to this tab that will be seen only by you. Learn more ›
×
You can save this tab as Personal to edit and correct it or add notes. All changes will be seen only by you. Learn more »
launch autoscroll
font size
0
reset
how to read this tab
guitar tuner
edit
Autoscroll
slow
fast
+/-
esc
set tempo
stop
Author
Difficulty
Standard Tuning - Key of B major

Guitar 1 - clean
e---------------------------------|
b-4-4-5-5-7-7-5-5-----------------|
G-4-4-4-4-4-4-4-4-----------------|
D-----------------4-4-4-4-4-4-4-4-|
A---------------------------------|
E---------------------------------|
 palm mute throughout

Guitar one plays that riff Twice, then guitar two comes in with this for another 2 times
one continues playing above part):

Guitar 2 - clean...ish
e---------------------------------|
b---------------------------------|
G-4-4-4-4-4-4-4-4-----------------|
D-4-4-4-4-4-4-4-4-4-4-4-4-4-4-4-4-|
A-2-2-2-2-2-2-2-2-4-4-4-4-4-4-4-4-|
E-----------------2-2-2-2-2-2-2-2-|
 palm mute throughout

That's basically the verse, they both play those parts and then the part right before
"it isn't right" part is just guitar 1 playing this distorted while guitar two keeps up
lead part:

e---------------------------------|
b---------------------------------|
G-4-4-4-4-4-4-4-4-----------------|
D-4-4-4-4-4-4-4-4-4-4-4-4-4-4-4-4-|
A-2-2-2-2-2-2-2-2-4-4-4-4-4-4-4-4-|
E-----------------2-2-2-2-2-2-2-2-|

Then, the chorus is both guitars distorted:

e-----------------------------------------------------------------|
b-----------------------------------------------------------------|
G-----------------------------------------------------------------|
D-4-4-4-4-4-4-4-4-4-4-4-4-4-4-4-4---------------------------------|
A-2-2-2-2-2-2-2-2-1-1-1-1-1-1-1-1-4-4-4-4-4-4-4-4-4-4-4-4-4-4-4-4-|
E---------------------------------2-2-2-2-2-2-2-2-2-2-2-2-2-2-2-2-|

technically, guitar 1 continues doing the main lead part clean, but that's your choice.

it repeats that 2 times, but before the second prechorus guitar 2 cuts out and it's just
bass, lead and vocals.

the pirate story part is the verse again, but the distorted part changes and there's no prechorus

distorted - both guitars
e-----------------------------------------------------------------|
b-----------------------------------------------------------------|
G-----------------------------------------------------------------|
D-2-2-2-2-2-2-2-2-6-6-6-6-6-6-6-6-4-4-4-4-4-4-4-4-4-4-4-4-4-4-4-4-|
A-2-2-2-2-2-2-2-2-6-6-6-6-6-6-6-6-4-4-4-4-4-4-4-4-4-4-4-4-4-4-4-4-|
E-0-0-0-0-0-0-0-0-4-4-4-4-4-4-4-4-2-2-2-2-2-2-2-2-2-2-2-2-2-2-2-2-|

Guitar solo:
Guitar 2 keeps up the same riff
Guitar 1 - Distorted

e-----------------------------------------|
b-/12-12-12-12-12-12-12-12-\11-11-\9-\7-7-|
G-----------------------------------------|
D-----------------------------------------|   repeat that twice, then
A-----------------------------------------|
E-----------------------------------------|

Here's the rhythm in 8th notes, but they're 16ths in the song, this is just to get the 
feel

e-4-0-0-4-0-0-4-0-6-0-0-6-0-0-6-0-7-0-0-7-0-0-7-0-7-0-0-7-0-0-7-0-|
b-----------------------------------------------------------------|
G-----------------------------------------------------------------|
D-----------------------------------------------------------------|
A-----------------------------------------------------------------|
E-----------------------------------------------------------------|

Triplet accents (the not open notes)
e-7-0-6-0-4-0-7-0-6-0-4-0-7-0-6-0-4-0-7-0-6-0-4-0-|
b-------------------------------------------------|
G-------------------------------------------------|
D-------------------------------------------------|
A-------------------------------------------------|
E-------------------------------------------------|

                         ~~~~~~~~~~~~ ~~~~~~~~~
e-/21-21-212121-19-18-16-14-----------9----------|
b------------------------------------------------|
G------------------------------------------------|
D------------------------------------------------|
A------------------------------------------------|
E------------------------------------------------|

guitar 2 goes back to the intro riff clean, then both guitars distorted:

e-----------------------------------------------------------------------------|
b-----------------------------------------------------------------------------|
G-4---4-------9-9-9-9-9-9-9-9-4-4-4-4-4-4-4-4-4-4-4-4-4-4-4-4-4-4-4-4-4-4-4-4-|
D-4---4---4---9-9-9-9-9-9-9-9-4-4-4-4-4-4-4-4-4-4-4-4-4-4-4-4-4-4-4-4-4-4-4-4-|
A-2---1---4---7-7-7-7-7-7-7-7-2-2-2-2-2-2-2-2-1-1-1-1-1-1-1-1-1-1-1-1-1-1-1-1-|
E---------2-------------------------------------------------------------------|
                                              p.m............................
                                              slowly open up

then back to the intro twice:

Guitar 1
e---------------------------------|
b-4-4-5-5-7-7-5-5-----------------|
G-4-4-4-4-4-4-4-4-----------------|
D-----------------4-4-4-4-4-4-4-4-|
A---------------------------------|
E---------------------------------|

Guitar 2
e---------------------------------|
b---------------------------------|
G-4-4-4-4-4-4-4-4-----------------|
D-4-4-4-4-4-4-4-4-4-4-4-4-4-4-4-4-|
A-2-2-2-2-2-2-2-2-4-4-4-4-4-4-4-4-|
E-----------------2-2-2-2-2-2-2-2-|

            
            
Suggest correction
Creating personal tab
Creating personal tab
You can edit any tab online and save it as your Personal.

You can edit, replace or remove any tab part or add personal notes – all changes will be seen only by you.

Personal tabs can be accessed anytime from any device, even offline.
Learn more »
Give kudos to tab author, rate the tab!
1 2 3 4 5
comments
print report bad tab
guest
You may want to rate the tab now too:
select rating
Wanna post a correction for this tab? Suggest correction