Oops, an error
Loading. Please wait.

Love Me Dead bass

version 2
version 2

Whole song

Interactive

by Ludo
1,322 views 6 this week
no commentswrite comment
1 2 3 4 5
x 4
add to favorites
×
Save as Personal and add changes to this tab that will be seen only by you. Learn more ›
×
You can save this tab as Personal to edit and correct it or add notes. All changes will be seen only by you. Learn more »
launch autoscroll
font size
0
reset
guitar tuner
edit
Autoscroll
slow
fast
+/-
esc
set tempo
stop
Author
Difficulty

If you'd like me to tab out any other bass line for a Ludo song E-Mail me~

The song begins after the intro with only 1 guitar.
(This is for the MP3 version of the song, not the video version)

Verse I:

G|--------------------|-------------------|--------------------|
D|--------------------|-------------------|-----530-7~-77-7----|
A|5-5-5-75-0--0-013-4-|5-5-5-75-0--0-013~-|----------------78~-|
E|--------------------|-------------------|3-33----------------|

G|-------------------|
D|-------------------|
A|5-5-5-5-5-5-333333-|
E|-------------------|

Chorus:

D|--------------------------------------------|
G|--------------------------------------------|
A|----------------------5~-55~--55~/12-10-8-7-|
E|-1~-11~--11~--11--11~-----------------------|

G|-----------------------------------------------|
D|-----------------------------------------------|
A|-----------------------------------------------|
E|-6~-66~--66~--66~--66~-3~-33~--33~-3~-33~-4-4~-|

G|--------------------------------------------------------------|
D|--------------------------------------------------------------|
A|----------------------5~-55~--55~-5~-55~--55~-0-0-0-0-0-0-0-0-|
E|1~-11~--11~--11~--11~-----------------------------------------|

G|----------------------|
D|----------------------|
A|-1-1-1-1/444444444444-|
E|----------------------|

Verse II:

G|--------------------|
D|--------------------|
A|5-5-5-75-0--0-013-4-|
E|--------------------| x2

G|--------------------|-------------------|--------------------|
D|--------------------|-------------------|-----530-7~-77-7----|
A|5-5-5-75-0--0-013-4-|5-5-5-75-0--0-013~-|----------------78~-|
E|--------------------|-------------------|3-33----------------|

G|--7---7------------------|
D|-------------------------|
A|5---5---5-0-5-0-5-0-5-0-5|
E|-------------------------|

[[REPEAT VERSE I, CHORUS AND VERSE II]]

Guitar Solo (2:43):

G|--------------------|-------------------|-----------------------7--7|
D|--------------------|-------------------|-----530-7~--7-7-7-7-------|
A|5-5-5-75-0--0-013-4-|5-5-5-75-0--0-013~-|---------------------5--5--|
E|--------------------|-------------------|3-33-----------------------|

(Played fast)
G|--------------------------------|
D|8-7----7------------------------|  
A|----10---10-8-10-8-7-8-7-0-5\(0)|
E|--------------------------------|

[[REPEAT VERSE I AND CHORUS]]

Ending: (03:54)

G|--------------------|
D|--------------------|
A|5-5-5-75-0--0-013-4-|
E|--------------------| x4

G|-----------------------------------------|
D|-----------------------------------------|
A|-5555557777779999991212121212------------|
E|------------------------------10~---5~---|
Suggest correction
Creating personal tab
Creating personal tab
You can edit any tab online and save it as your Personal.

You can edit, replace or remove any tab part or add personal notes – all changes will be seen only by you.

Personal tabs can be accessed anytime from any device, even offline.
Learn more »
comments
print report bad tab
guest
You may want to rate the tab now too:
select rating
Wanna post a correction for this tab? Suggest correction