Oops, an error
Loading. Please wait.

Love Me Dead tab

version 2
version 2

Whole song

Interactive

by Ludo
63,709 views 33 this week
10 commentsread comments
1 2 3 4 5
x 33
add to favorites
×
Save as Personal and add changes to this tab that will be seen only by you. Learn more ›
×
You can save this tab as Personal to edit and correct it or add notes. All changes will be seen only by you. Learn more »
launch autoscroll
font size
0
reset
how to read this tab
guitar tuner
edit
Autoscroll
slow
fast
+/-
esc
set tempo
stop
Author
Difficulty
intermediate
Love Me Dead by Ludo
tabbed by alwarnecke
Standard Tuning
Guitar 1 - Tim Ferrel
Guitar 2 - Andrew Volpe

[INTRO]
[Guitar 1]
   Dm
e|-------------------------|
b|----6-----6-----6-----6--|
G|----7-----7-----7-----7--|
D|-------------------------|
A|-5-----5-----5-----5-----|
E|-------------------------|

[VERSE]
[Guitar 1]
   Dm                    A
e|-5-----5-----5---5--5--5-------5-----5---5--5---5--|
b|-6-----6-----6---6--6--5-------5-----5---5--5---5--|
G|-7-----7-----7---7--7--6-------6-----6---6--6---6--|
D|-7-----7-----7---7--7--7-------7-----7---7--7---7--|
A|-5-----5-----5---5--5--7-------7-----7---7--7---7--|
E|-----------------------5-------5-----5---5--5---5--|

1a Love  me    can-cerously                   Like a
   Salt  sore  soaked... sea     high  mai-tainance
 b Kill  me    ro- mantically                 Fill my
   soul  with  vo- mit then ask..for a     pi-ece of
2a Faith healer...     T-V                    You're an
   office park...        trees             corporate and
 b Suck  so    passionately                   You're a
   Para- sitic psyco  filthy creature  finger bangin' my

[Guitar 1]
         Gm                      A                 Dm
e|-------3-----------3-----------5-----------5-----5-----5-----5-----5---5--5-|
b|-------3-----------3-----------5-----------5-----6-----6-----6-----6---5--6-|
G|-------3-----------3-----------6-----------6-----7-----7-----7-----7---7--7-|
D|-------5-----------5-----------7-----------7-----7-----7-----7-----7---7--7-|
A|-------5-----------5-----------7-----------7-----5-----5-----5-----5---5--5-|
E|-3-----3-----3-----3--5--------5-----5-----5--------------------------------|
1a means you're...      queen,   narcesistic and mean
 b gum         bitter and dumb,  you're my sugarplum                 You're awful
2a cold,       gushing for gold,       leave me alone                          You
 b heart,  you call me up drunk, does the fun ever start             You're hideous

[PRECHORUS]
[Guitar 1]
      Dm    C
e|----5-----3-----------|
b|----6-----5-----------|
G|----7-----5-----------|
D|----7-----5-----------|
A|----5-----3-----------|
E|----------------------|

[Guitar 2]
e|----------------------|
b|----------------------|
G|----------------------|
D|-------10-10----------|
A|-------10-10----------|
E|--------8-8-----------|
1         I love you...
2       and sexy...

[CHORUS]
[Guitar 1]
   F                                               Dm
e|-1-----1-----------1-----------1-----------1-----5-----5-----------5-----------5-----------5-|
b|-1-----1-----------1-----------1-----------1-----6-----6-----------6-----------6-----------6-|
G|-2-----2-----------2-----------2-----------2-----7-----7-----------7-----------7-----------7-|
D|-3-----3-----------3-----------3-----------3-----7-----7-----------7-----------7-----------7-|
A|-3-----3-----------3-----------3-----------3-----5-----5-----------5-----------5-----------5-|
E|-1-----1-----------1-----------1-----------1-------------------------------------------------|

[Guitar 2]
   F                                               D
e|---------------------------------------------------------------------------------------------|
b|---------------------------------------------------------------------------------------------|
G|-------------------------------------------------7-----7-----------7-----------7-----------7-|
D|-3-----3-----------3-----------3-----------3-----7-----7-----------7-----------7-----------7-|
A|-3-----3-----------3-----------3-----------3-----5-----5-----------5-----------5-----------5-|
E|-1-----1-----------1-----------1-----------1-------------------------------------------------|
         She  moves  through moonbeams  slow-ly          She  knows  just  how   to    hold  me

[Guitar 1]
   Bb                                              G
e|-6-----6-----------6-----------6-----------6----\3-----3-----------3-----------3----/4-----4-|
b|-6-----6-----------6-----------6-----------6----\3-----3-----------3-----------3----/4-----4-|
G|-7-----7-----------7-----------7-----------7----\4-----4-----------4-----------4----/5-----5-|
D|-8-----8-----------8-----------8-----------8----\5-----5-----------5-----------5----/6-----6-|
A|-8-----8-----------8-----------8-----------8----\5-----5-----------5-----------5----/6-----6-|
E|-6-----6-----------6-----------6-----------6----\3-----3-----------3-----------3----/4-----4-|

[Guitar 2]
   Bb                                              G
e|---------------------------------------------------------------------------------------------|
b|---------------------------------------------------------------------------------------------|
G|---------------------------------------------------------------------------------------------|
D|-8-----8-----------8-----------8-----------8----\5-----5-----------5-----------5----/6-----6-|
A|-8-----8-----------8-----------8-----------8----\5-----5-----------5-----------5----/6-----6-|
E|-6-----6-----------6-----------6-----------6----\3-----3-----------3-----------3----/4-----4-|
         And   when  her   edg - es    sof - ten         her    bo - dy   is     my    cof - fin

[Guitar 1]
   F                                               Dm
e|-1-----1-----------1-----------1-----------1-----5-----5-----------5-----------5-----------5-|
b|-1-----1-----------1-----------1-----------1-----6-----6-----------6-----------6-----------6-|
G|-2-----2-----------2-----------2-----------2-----7-----7-----------7-----------7-----------7-|
D|-3-----3-----------3-----------3-----------3-----7-----7-----------7-----------7-----------7-|
A|-3-----3-----------3-----------3-----------3-----5-----5-----------5-----------5-----------5-|
E|-1-----1-----------1-----------1-----------1-------------------------------------------------|

[Guitar 2]
   F                                                     D
e|---------------------------------------------------------------------------------------------|
b|---------------------------------------------------------------------------------------------|
G|-------------------------------------------------7-----7-----------7-----------7-----------7-|
D|-3-----3-----------3-----------3-----------3-----7-----7-----------7-----------7-----------7-|
A|-3-----3-----------3-----------3-----------3-----5-----5-----------5-----------5-----------5-|
E|-1-----1-----------1-----------1-----------1-------------------------------------------------|
         I   know    she  drains me   slow - ly          She  wears  me   down   to   bones  in

[Guitar 1]
e|-------------------------------------------------------------------------------------6-/8\--6--|
b|-------------------------------------------------------------------------6-6-6-6-6-6-----------|
G|-------------------------------------------------------------7-7-7-7-7-7-----------------------|
D|-------------------------------------7-7-7-7-7-7-8-8-8-8-8-8-----------------------------------|
A|-------------------------7-7-7-7-7-7-----------------------------------------------------------|
E|-5-5-5-5-5-5-9-9-9-9-9-9-----------------------------------------------------------------------|

[Guitar 2]
   A                                                  Bb
e|-----------------------------------------------------------------------------------------------|
b|-----------------------------------------------------------------------------------------------|
G|----------------------------------------------------------------------6-6-6-6-6-6-6-6-6-6-6-6--|
D|-7-----7----------7----------7----------7----/8-----8-----8-----8-----6-6-6-6-6-6-6-6-6-6-6-6--|
A|-7-----7----------7----------7----------7----/8-----8-----8-----8-----4-4-4-4-4-4-4-4-4-4-4-4--|
E|-5-----5-----------5-----------5-----------5----/6-----6-----6-----6---------------------------|
         bed                Must be the...  on my        head   that says  Ooooooohhh  Love  me

[POST CHORUS]
[Guitar 1]
   Dm                           A
e|-5-----5-----5---5--5--5-------5-----5---5--5---5--|
b|-6-----6-----6---6--6--5-------5-----5---5--5---5--|
G|-7-----7-----7---7--7--6-------6-----6---6--6---6--|
D|-7-----7-----7---7--7--7-------7-----7---7--7---7--|
A|-5-----5-----5---5--5--7-------7-----7---7--7---7--|
E|-----------------------5-------5-----5---5--5---5--|
   Dead                                  Love   me

[Guitar 1]
   D                           A
e|-5-----5-----5---5--5--5-------5-----5---5--5---5--|
b|-6-----6-----6---6--6--5-------5-----5---5--5---5--|
G|-7-----7-----7---7--7--6-------6-----6---6--6---6--|
D|-7-----7-----7---7--7--7-------7-----7---7--7---7--|
A|-5-----5-----5---5--5--7-------7-----7---7--7---7--|
E|-----------------------5-------5-----5---5--5---5--|
         dead

[SOLO]
[Guitar 1]
e|------------------------------------------------|
b|------------------------------------------------|
G|-7--p0-7--p0-7---9--7--6~-----------------------|
D|-----------------------------7--p0-7---8-7--p0--|
A|------------------------------------------------|
E|------------------------------------------------|

e|--------------------------------------------|
b|--------------------------------------------|
G|-7--p0-7--p0-7---9--7--6~-------------------|
D|-----------------------------7-6-7-8---7-6--|
A|--------------------------------------------|
E|--------------------------------------------|

e|-------------------------------------------------------------|
b|----------------------------11-10----10-h11h12h14-p12p11p10--|
G|-------------9h10p9-------------------------^^---------------|
D|--------------------------------------------^^---------------|
A|----------------------------------------Two hands on --------|
E|-8\7~------------------------------------this part-----------|

e|----------------------------------------------------------------------------|
b|----------------------------------------------------------------------------|
G|----------------------------------------------------------------------------|
D|-0-0-0-0-0-0-0-0-0-0-0-0-4p3p0-5p4p0-6p5p0-7p6p-8p7p0-9p8p0-10p9p0-11p10p0--|
A|----------------------------------------------------------------------------|
E|----------------------------------------------------------------------------|

e|--------------------------10-9-10/18------17~\---|
b|------------------10-9-10------------------------|
G|----------10-9-10--------------------------------|
D|-12-11-12----------------------------------------|
A|-------------------------------------------------|
E|-------------------------------------------------|

e|--17-13----13------------------------------------------|
b|--------15----15----15---------------------------------|
G|-----------------14----14----14------------------------|
D|--------------------------15----15-14-14--/17--\14-----|
A|-------------------------------------------------------|
E|-------------------------------------------------------|

e|-9--10--|  |-13p10-12p10-9h10-|
b|--------|  |------------------|
G|--------|  |------------------|   Repeat crazy number of times really fast
D|--------|  |------------------|
A|--------|  |------------------|
E|--------|  |------------------|

e|-13p12p10-13p12p10-13p12p10-9-10~----/13----13-17-13-17/22~-|
b|-----------------------------------------15-----------------|
G|------------------------------------------------------------|
D|------------------------------------------------------------|
A|------------------------------------------------------------|
E|------------------------------------------------------------|

[Guitar 1]
   Dm                    A
e|-5-----5-----5---5--5--5-------5-----5---5--5---5--|
b|-6-----6-----6---6--6--5-------5-----5---5--5---5--|
G|-7-----7-----7---7--7--6-------6-----6---6--6---6--|
D|-7-----7-----7---7--7--7-------7-----7---7--7---7--|
A|-5-----5-----5---5--5--7-------7-----7---7--7---7--|
E|-----------------------5-------5-----5---5--5---5--|
   Love  me    can-cerously.....

[Guitar 1]
   Dm                           A
e|-5-----5-----5---5--5--5---------------------------|
b|-6-----6-----6---6--6--5---------------------------|
G|-7-----7-----7---7--7--6---------------------------|
D|-7-----7-----7---7--7--7---(Let ring)--------------|
A|-5-----5-----5---5--5--7---------------------------|
E|-----------------------5---------------------------|
   (Whistles)

[Guitar 1]
   Dm                    A
e|-5-----5-----5---5--5--5-------5-----5---5--5---5-|
b|-6-----6-----6---6--6--5-------5-----5---5--5---5-|
G|-7-----7-----7---7--7--6-------6-----6---6--6---6-| x2
D|-7-----7-----7---7--7--7-------7-----7---7--7---7-|
A|-5-----5-----5---5--5--7-------7-----7---7--7---7-|
E|-----------------------5-------5-----5---5--5---5-|

[Guitar 2]
e|--------------------------------------------------|
b|--------------------------------------------------|
G|-7-----7-----7---7--7-----------------------------| x2
D|-7-----7-----7---7--7--7-------7-----7---7--7---7-|
A|-5-----5-----5---5--5--7-------7-----7---7--7---7-|
E|-----------------------5-------5-----5---5--5---5-|
   BRRAA DA    DAA DA DA DAAAAA
   BRRAA DA    DAA DA DA DAAAAAAA      How's...   boy?

[Guitar 1]
         Gm                      A
e|-------3-----------3-----------5-----------5----|
b|-------3-----------3-----------5-----------5----|
G|-------3-----------3-----------6-----------6----|
D|-------5-----------5-----------7-----------7----|
A|-------5-----------5-----------7-----------7----|
E|-3-----3-----3-----3--5--------5-----5-----5----|

[Guitar 2]
e|-----------------------------------------------|
b|-----------------------------------------------|
G|-----------------------------------------------|
D|-5-----5-----------5--7--------7-----------7---|
A|-5-----5-----------5--7--------7-----------7---|
E|-3-----3-----------3--5--------5-----------5---|

[Guitar 1]
   Dm                            C
e|-5-x-x-5-x-x-5-x-x-5-x-x-5-x-x-3-----------|
b|-6-x-x-6-x-x-6-x-x-6-x-x-6-x-x-5-----------|
G|-7-x-x-7-x-x-7-x-x-7-x-x-7-x-x-5-----------|
D|-7-x-x-7-x-x-7-x-x-7-x-x-7-x-x-5-----------|
A|-5-x-x-5-x-x-5-x-x-5-x-x-5-x-x-3-----------|
E|-------------------------------------------|

[Guitar 2]
e|-------------------------------------------|
b|-------------------------------------------|
G|-7-x-x-7-x-x-7-x-x-7-x-x-7-x-5-5-----------|
D|-7-x-x-7-x-x-7-x-x-7-x-x-7-x-5-5-----------|
A|-5-x-x-5-x-x-5-x-x-5-x-x-5-x-3-3-----------|
E|-------------------------------------------|

[CHORUS]

[POST CHORUS]

            
            
Suggest correction
Creating personal tab
Creating personal tab
You can edit any tab online and save it as your Personal.

You can edit, replace or remove any tab part or add personal notes – all changes will be seen only by you.

Personal tabs can be accessed anytime from any device, even offline.
Learn more »
comments
print report bad tab
10 comments total. Showing first comments.
0 reply
nfrench 40 May 08, 2008 10:10 AM

great tab...weird song

+4 reply
yoh47 57 Jun 13, 2008 06:21 PM

fantastic...this song is weird but catchy..

0 reply
ACDCfrontman 35 Jul 08, 2008 07:55 AM

This song is amazing, ludo lyrics are hilarious.

guest
You may want to rate the tab now too:
select rating
Wanna post a correction for this tab? Suggest correction