Oops, an error
Loading. Please wait.

Roxy bass

by Ludo
131 views 1 this week
no commentswrite comment
1 2 3 4 5
2 more votes to show rating
add to favorites
×
Save as Personal and add changes to this tab that will be seen only by you. Learn more ›
×
You can save this tab as Personal to edit and correct it or add notes. All changes will be seen only by you. Learn more »
launch autoscroll
font size
0
reset
guitar tuner
edit
Autoscroll
slow
fast
+/-
esc
set tempo
stop
Author
Difficulty
Tabbed by iiGerik
E-Mail: Gerik-@Hotmail.com
(Sorry for the length of the tab, the song adds intriquite parts to finish off
most of their bass lines so I couldn't reference to a part without confusion.)
Put on some headphones to understand some of the rhythms~

Roxy
By: Ludo

G|---------------------|---------------------|
D|---------------------|---------------------|
A|------3333------5555-|------3333-----------|
E|-3333------5555------|-3333------0000-1111-|

G|---------------------|----------------------|
D|---------------------|----------------------|
A|------3333------5555-|------3333------------|
E|-3333------5555------|-3333------5555-8888/0|

(the little slidy part~)
G|----------------------|
D|----------------------|
A|-9-12/(7)-9/(5)-5/(1)-|
E|----------------------|

G|------------------------------------|
D|------------------------------------|
A|0-2-3-5-5753-2-3-5-0-2-3-7-5-3-2-353|
E|------------------------------------| x3

G|-----------------------------------------------------------------|
D|-----------------------------------------------------------------|
A|3~-353---023~-353---023~-353------------3-3333-33335-5555--------|
E|------3~3--------3~3--------3~-3333-3333-------------------3~-3~-| 

(Pause until slidy part starts~)
G|----------------------|
D|----------------------|
A|-9-12/(7)-9/(5)-5/(1)-|
E|----------------------|

G|------------------------------------|
D|------------------------------------|
A|0-2-3-5-5753-2-3-5-0-2-3-7-5-3-2-353|
E|------------------------------------| x3

G|-----------------------------------------------------------------|
D|-----------------------------------------------------------------|
A|3~-353---023~-353---023~-353------------3-3333-33335-5555--------|
E|------3~3--------3~3--------3~-3333-3333-------------------3~-3~-| 

G|---------------------|---------------------|
D|---------------------|---------------------|
A|------3333------5555-|------3333-----------|
E|-3333------5555------|-3333------0000-1111-|

G|---------------------|---------------------|
D|---------------------|---------------------|
A|------3333------5555-|------3333-----------|
E|-3333------5555------|-3333------5555-8888-|

G|----------------------------------------|
D|----------------------------------------|
A|-------33--------33--------33--------55-|
E|-3-33-3----3-33-3----3-33-3----5-55-5---|

G|--------------------------------------------------|
D|--------------------------------------------------|
A|-------3-33-3------3-33-3------3-33-3------5-55-5-|
E|-3-33-3------3-33-3------3-33-3------5-55-5-------| x2

(pause until slidy part starts~)
G|----------------------|
D|----------------------|
A|-9-12/(7)-9/(5)-5/(1)-|
E|----------------------|

G|------------------------------------|
D|------------------------------------|
A|0-2-3-5-5753-2-3-5-0-2-3-7-5-3-2-353|
E|------------------------------------| x3


G|-----------------------------------------------------------------|
D|-----------------------------------------------------------------|
A|3~-353---023~-353---023~-353------------3-3333-33335-5555--------|
E|------3~3--------3~3--------3~-3333-3333-------------------3~-3~-| 

G|---------------------|---------------------|
D|---------------------|---------------------|
A|------3333------5555-|------3333-----------|
E|-3333------5555------|-3333------0000-1111-|

G|---------------------|---------------------|
D|---------------------|---------------------|
A|------3333------5555-|------3333-----------|
E|-3333------5555------|-3333------5555-8888-| these 2 parts x2

G|------------------------|
D|------------------------|
A|----22-33-55----33-55-00|
E|-3-3---------5-5--------| x 3

And end with a G! (Or 3)
Suggest correction
Creating personal tab
Creating personal tab
You can edit any tab online and save it as your Personal.

You can edit, replace or remove any tab part or add personal notes – all changes will be seen only by you.

Personal tabs can be accessed anytime from any device, even offline.
Learn more »
Give kudos to tab author, rate the tab!
1 2 3 4 5
comments
print report bad tab
guest
You may want to rate the tab now too:
select rating
Wanna post a correction for this tab? Suggest correction