Oops, an error
Loading. Please wait.

I Giorni intro tab

version 1
version 1

Intro

  • Introduction to get you started.

Interactive

283 views 15 this week
no commentswrite comment
1 2 3 4 5
3 more votes to show rating
add to favorites
×
Save as Personal and add changes to this tab that will be seen only by you. Learn more ›
×
You can save this tab as Personal to edit and correct it or add notes. All changes will be seen only by you. Learn more »
launch autoscroll
font size
0
reset
how to read this tab
guitar tuner
edit
Autoscroll
slow
fast
+/-
esc
set tempo
stop
About this tab version
Introduction to get you started. Was this info helpful? Yes No
e|--------------------|--------------------|--------------------|--------------------|
B|--3-----------------|--2-----------------|--2-----0-----------|--------------0--2--|
G|--------2-----2-----|--------2-----2-----|--------------2-----|--2-----------------|
D|-----0-----0-----0--|-----0-----0-----0--|-----0-----0-----0--|--0-----------------|
A|--2-----------------|--0-----------------|--------------------|--------------------|
E|--------------------|--------------------|--3-----------------|--3-----------------|

e|--------------------|--------------------|--------------------|--------------------|
B|--3-----------------|--2-----------------|--0-----------------|-----------2--0--2--|
G|--------2-----2-----|--------2-----2-----|--------2-----2-----|--2-----------------|
D|-----0-----0-----0--|-----0-----0-----0--|-----0-----0-----0--|--0-----------------|
A|--2-----------------|--0-----------------|--------------------|--------------------|
E|--------------------|--------------------|--3-----------------|--3-----------------|

e|--------------------|--------------------|--------------------|--------------------|
B|--3-----------------|--2--------------3--|--2-----0-----------|--------------0--2--|
G|--------2-----2-----|--------2-----2-----|--------------2-----|--2-----------------|
D|-----0-----0-----0--|-----0-----0--------|-----0-----0-----0--|--0-----------------|
A|--2-----------------|--0-----------------|--------------------|--------------------|
E|--------------------|--------------------|--3-----------------|--3-----------------|

e|--------------------|--------0-----------|--------------------|-----------------0--|
B|--3-----------------|--2-----------3--2--|--0-----------------|--------------3-----|
G|--------2-----2-----|--------------------|--------2-----2-----|--2-----------------|
D|-----0-----0-----0--|-----0-----0--------|-----0-----0-----0--|--0-----------------|
A|--2-----------------|--0-----------------|--------------------|--------------------|
E|--------------------|--------------------|--3-----------------|--3-----------------|

e|--2-----------------|--0--------------2--|--0-----------------|-----------------0--|
B|--------------------|--------------------|--------3-----------|--------------3-----|
G|--------2-----2-----|--------2-----2-----|--------------2-----|--2-----------------|
D|-----0-----0-----0--|-----0-----0--------|-----0-----0-----0--|--0-----------------|
A|--2-----------------|--0-----------------|--------------------|--------------------|
E|--------------------|--------------------|--3-----------------|--3-----------------|

e|--2-----------------|--0--------5--------|--------------------|--------------------|
B|--------------------|--------------------|--3-----------------|--------0--2--0--2--|
G|--------2-----2-----|--------2-----2-----|--------2-----2-----|--2-----------------|
D|-----0-----0-----0--|-----0-----------0--|-----0-----0-----0--|--0-----------------|
A|--2-----------------|--0-----------------|--------------------|--------------------|
E|--------------------|--------------------|--3-----------------|--3-----------------|

e|--------------------|--------------------|--------------------|--------------------|
B|--3-----------------|--2--------------3--|--2-----0-----------|--------------0--2--|
G|--------2-----2-----|--------2-----2-----|--------------2-----|--2-----------------|
D|-----0-----0-----0--|-----0-----0--------|-----0-----0-----0--|--0-----------------|
A|--2-----------------|--0-----------------|--------------------|--------------------|
E|--------------------|--------------------|--3-----------------|--3-----------------|

e|--------------------|--------0-----------|--------------------|--------------------|
B|--3-----------------|--2-----------3--2--|--0-----------------|-----------3--2--3--|
G|--------2-----2-----|--------------------|--------2-----2-----|--2-----------------|
D|-----0-----0-----0--|-----0-----0--------|-----0-----0-----0--|--0-----------------|
A|--2-----------------|--0-----------------|--------------------|--------------------|
E|--------------------|--------------------|--3-----------------|--3-----------------|

e|--------------------|-----------0--------|--------------------|--------------------|
B|--3--------3--2--3--|--2-----------3--2--|--2-----0-----------|-----------3--2--3--|
G|--------2-----------|--------2-----------|--------------2-----|--------2-----------|
D|-----0--------------|-----0--------------|-----0-----0-----0--|-----0--------------|
A|--2-----------------|--0-----------------|--------------------|--------------------|
E|--------------------|--------------------|--3-----------------|--3-----------------|

e|--------------------|-----0-----0--------|--------------------|--------------------|
B|--3--------3--2--3--|--2-----3-----3--2--|--0-----------------|-----------3--2--3--|
G|--------2-----------|--------------------|--------2-----2-----|--------2-----------|
D|-----0--------------|--------------------|-----0-----0-----0--|-----0--------------|
A|--2-----------------|--0-----------------|--------------------|--------------------|
E|--------------------|--------------------|--3-----------------|--3-----------------|

e|--------------------|-----------0--------|--------------------|--------------------|
B|--3--------3--2--3--|--2-----------3--2--|--2-----0-----------|-----------3--2--3--|
G|--------2-----------|--------2-----------|--------------2-----|--------2-----------|
D|-----0--------------|-----0--------------|-----0-----0-----0--|-----0--------------|
A|--2-----------------|--0-----------------|--------------------|--------------------|
E|--------------------|--------------------|--3-----------------|--3-----------------|

e|--------------------|-----0-----0--------|--------------------|--------2--3--2--3--|
B|--3--------3--2--3--|--2-----3-----3--2--|--0-----------------|--------------------|
G|--------2-----------|--------------------|--------2-----2-----|--------------------|
D|-----0--------------|--------------------|-----0-----0-----0--|--------------------|
A|--2-----------------|--0-----------------|--------------------|--------------------|
E|--------------------|--------------------|--3-----------------|--------------------|

e|--5-----2--3--2--3--|--5-----2--3--2--3--|--5-----2--5-----2--|--3-----2--3--2--3--|
B|--------------------|--------------------|-----3--------3-----|--------------------|
G|-----2--------------|-----2--------------|--------------------|--------------------|
D|--0-----------------|--------------------|--------------------|-----0--------------|
A|--------------------|--0-----------------|--2-----------------|--------------------|
E|--------------------|--------------------|--------------------|--3-----------------|

e|--5-----2--3--2--3--|--5--7--5--3--2--0--|--0-----------------|--------2--3--2--3--|
B|--------------------|--------------------|--------3-----------|--------------------|
G|-----2--------------|--------------------|--------------4-----|--------------------|
D|--0-----------------|--------------------|-----4-----4-----4--|-----0--------------|
A|--------------------|--0-----------------|--2-----------------|--------------------|
E|--------------------|--------------------|--------------------|--3-----------------|

e|--5-----2--3--2--3--|--5--7--5--3--2--3--|--5-----2--5-----2--|--3-----2--3--2--3--|
B|--------------------|--------------------|-----3--------3-----|--------------------|
G|-----2--------------|--------------------|--------------------|--------------------|
D|--0-----------------|--------------------|--------------------|-----0--------------|
A|--------------------|--0-----------------|--2-----------------|--------------------|
E|--------------------|--------------------|--------------------|--3-----------------|

e|--5-----2--3--2--3--|--5--7--5--3--2--0--|--------------------|--------2--3--2--0--|
B|--------------------|--------------------|--3-----------------|--------------------|
G|-----2--------------|--------------------|--------4-----4-----|--------------------|
D|--0-----------------|--------------------|-----4-----4-----4--|-----0--------------|
A|--------------------|--0-----------------|--2-----------------|--------------------|
E|--------------------|--------------------|--------------------|--3-----------------|

e|--------5--------5--|--------------------|--------------------|--------2--3--2--0--|
B|-----7--------7-----|--------7--8--7--5--|--5-----3-----------|--------------------|
G|--7--------7--------|-----7--------------|--------4-----4-----|--------------------|
D|--0-----------------|--------------------|-----4-----4-----4--|-----0--------------|
A|--------------------|--0-----------------|--2-----------------|--------------------|
E|--------------------|--------------------|--------------------|--3-----------------|

e|--5--------5--------|--5--------3--------|--3--------2--------|--2--------3--------|
B|--------3--------3--|--------3--------3--|--------3--------3--|--------3--------3--|
G|-----2--------2-----|-----2--------2-----|-----2--------2-----|-----2--------2-----|
D|--0-----------------|--------------------|--------------------|--------------------|
A|--------------------|--0-----------------|--2-----------------|--------------------|
E|--------------------|--------------------|--------------------|--3-----------------|

e|-10--------10---10--|-10-------10-----8--|-10--------10-------|-10--------10-------|
B|-------10-----------|-------8------------|--------7--------7--|--------8---------8-|
G|----7---------7-----|----7---------7-----|-----7--------7-----|-----7---------7----|
D|-0------------------|--------------------|--------------------|--------------------|
A|--------------------|-0------------------|--------------------|-10-----------------|
E|--------------------|--------------------|-7------------------|--------------------|

e|-10--------10-------|-10--------10-------|-10-------10--------|-10-------10--------|
B|-------10--------10-|--------8--------8--|-------7---------7--|-------8---------8--|
G|---11---------11----|-----9--------9-----|----7--------7------|----7---------7-----|
D|-0------------------|--------------------|--------------------|--------------------|
A|--------------------|-0------------------|--------------------|-10-----------------|
E|--------------------|--------------------|-7------------------|--------------------|

e|-10----10-----10----|-10----10-----10----|-10----10-----10----|-10----10-----10----|
B|----7------7------7-|-8-----8------8-----|-7-----7------7-----|-8-----8------8-----|
G|--------------------|----7-----7------7--|----7------7------7-|----7------7------7-|
D|-0------------------|--------------------|--------------------|--------------------|
A|--------------------|--------------------|--------------------|-10-----------------|
E|--------------------|-0------------------|-7------------------|--------------------|

e|-10----10-----10----|-10----10----10-----|----10----|----10---|--2-------3---------|
B|-7-----7------7-----|-5-----5------5-----|----7-----|----7----|------0-------------|
G|----7------7------7-|----7------7------7-|----7-----|----7----|--2-----------------|
D|-0------------------|--------------------|----0-----|----0----|--0-----------------|
A|--------------------|-0------------------|----0-----|----0----|--2-----------------|
E|--------------------|--------------------|----------|---------|--------------------|

            
            
Suggest correction
Creating personal tab
Creating personal tab
You can edit any tab online and save it as your Personal.

You can edit, replace or remove any tab part or add personal notes – all changes will be seen only by you.

Personal tabs can be accessed anytime from any device, even offline.
Learn more »
Give kudos to tab author, rate the tab!
1 2 3 4 5
comments
print report bad tab
guest
You may want to rate the tab now too:
select rating
Wanna post a correction for this tab? Suggest correction