Oops, an error
Loading. Please wait.

Nuvole Bianche Tab

version 1
version 1

Whole song

Interactive

150,317 views 886 this week
8 commentsread comments
1 2 3 4 5
excellent!
x 58
add to favorites
launch autoscroll
font size
0
reset
how to read this tab
guitar tuner
Tab Pro tools
  • play this tab
  • loop segment
  • change instrument
  • show fretboard
  • metronome
×
Best way to learn
"Nuvole Bianche"
Autoscroll
slow
fast
+/-
esc
set tempo
stop
Contributor
Difficulty
Capo
intermediate
1st fret
"Nuvole Bianche"
By Ludovico Einaudi
Arranged by Forrest Brown

Standard tuning
Capo 1st fret, or tune up 1 half step

Chords used: Em, C/E, G, D/F# (all chords relative to capo)

INTRO (0:00-0:29)
|-0----0----3----2---------|-0----0----3----2---------|
|-0----1----3----3---------|-0----1----3----3---------|
|-0----0----0----2---------|-0----0----0----2---------|
|-2----2----0----0----0----|-2----2----0----0----0----|
|-2----3----2--------------|-2----3----2----x---------|
|-0----x----3--------------|-0----3----3----2---------|

PART 1 (0:31-0:54)
                  1st time:
|-----------------|-----------------|-----------------|-----------------|
|-----------------|-----------------|-1p0-0-0-1p0-0-0-|-0-------1p0-----|
|-2p0-0-0-2p0-0-0-|-2p0-0-0-2p0-0-0-|-----------------|---2-2-2-----2---|
|-----------------|-----------------|-----------------|-0-------------0-|
|-----------------|-3-------3-------|-----------------|-----------------|
|-0-------0-------|-----------------|-3-------3-------|-----------------|

2nd time:
|-----------------|-----------------|-----------------|
|-----------------|---0-0-0-1p0-0---|-0-------1p0-----|
|-----------------|-0-------------0-|---2-2-2-----2---|
|-4p2-2-2-4p2-2-2-|-----------------|-0-------------0-|
|-3-------3-------|-----------------|-----------------|
|-----------------|-3-------3-------|-----------------|

(0:54-1:17)               1st time:
|-------------------------|-------------------------|-------------------------|
|-------------------------|-------------------------|-1p0-------0-1p0-------0-|
|-2p0-------0-2p0-------0-|-2p0-------0-2p0-------0-|-----0---0-------0---0---|
|-----2---2-------2---2---|-----2---2-------2---2---|-------0-----------0-----|
|-------2-----------2-----|-3-----3-----3-----3-----|-------------------------|
|-0-----------0-----------|-------------------------|-3-----------3-----------|

                          2nd time:
|-------------------------|-2p0-------0-2p0-------0-|-------------------------|
|-0-----------1p0---------|-----1---1-------1---1---|---0-------0-1p0-------0-|
|---2---2---2-----2---2p0-|-------0-----------0-----|-0---0---0-------0---0---|
|-0---0---0---0-----0-----|-------------------------|-------0-----------0-----|
|-------------------------|-3-----------3-----------|-------------------------|
|-------------------------|-------------------------|-3-----------3-----------|

|-------------------------|
|-0-----------1p0---------|
|---2---2---2-----2---2p0-|
|-0---0---0---0-----0-----|
|-------------------------|
|-------------------------|


PART 2 (1:18-1:39)
|-----------------------|-----------------------|-----------------------|
|---0-----------------0-|---0-----------------1-|---0-----0-----------0-|
|-2---2p0-0---------0---|-2---2p0-----------0---|-2---2p0-----------0---|
|-------------2---2-----|---------2---2---2-----|-------------0---0-----|
|-----------2---2-------|---------3-3---3-------|-----------2---2-------|
|---------0-------------|-----------------------|---------3-------------|

                                PART 3(1:40-2:00)
|---------------------0-|---0-----------------0--|---0-----------------0-----|
|---0---------------3---|---1--3p1p0-1-3--1p0-3--|---1--3p1p0-1-3--0-0-1p0---|
|-2---2p0-2---2---2-----|-0-0----------0------2--|-0-0----------0------2---2-|
|---------0-0---0-------|---2----------0------0--|---2----------0------0-----|
|-----------------------|---3----------x------x--|---3----------x------x-----|
|-----------------------|--------------3------2--|--------------3------2-----|

|---|-0----------2--|
|---|-1----------3--|
|-0-|-0--2p0---0-2--|
|---|-2------4---0--|
|---|-3----------x--|
|---|-3----------2--|

PART 3 (2:02-2:22)
|---------------------------------|-----------------------|-----------------|
|---0-----------0-----------0-----|-------------1---0-----|-0-----0-----0---|
|-2---2p0-0---2---2p0-0---2---2p0-|-----------0---2---2p0-|---0-2---2p0---0-|
|-----------2-----------2---------|-2---2---2-------------|-----------------|
|---------------------------------|-3-3---3---------------|-----------------|
|---------0-----------0-----------|-----------------------|-3-----------3---|

|---------------------0-|---------------------------------------------------|
|---0---------------3---|-------3-----0-----3-----0-----3-----0-----3-----0-|
|-2---2p0-2---2---2-----|-0-2p0-0-0h2---2p0-0-0h2---2p0-0-0h2---2p0-0-0h2---|
|---------0-0---0-------|-------2-----------2-----------x-----------x-------|
|-----------------------|-------2-----------2-----------3-----------3-------|
|-----------------------|-------0-----------0-------------------------------|

|-----|-------------------------------------0h2----3p2---|
|-----|-3-----0-----3-----0-----3-----3---------3------3-|
|-2p0-|-0-0h2---2p0-0-0h2---2p0-2-2-----2---------2------|
|-----|-0-----------0-----------0---0-----0-0------0-----|
|-----|-x-----------x------------------------------------|
|-----|-3-----------3------------------------------------|

PART 4 (2:23-2:43)
|-------------------------------------------------|-------------------------|
|-------------0-----------------------------------|-0-----0-----3-----0-----|
|-0-----0-----------0-----0-----0-----5-----0-----|---2p0---2p0---0h2---2p0-|
|---4-2---4-2---2h4---4p2---4-2---4-2---2-4---4-2-|-------------------------|
|-------------------------3-----------3-----------|-------------------------|
|-0-----------0-----------------------------------|-3-----------3-----------|

                          PART 5 (2:43-3:04)
|-------------------------|-3-----2-----0-----0-----|-------------|
|-------------3-----------|-----0-----0-----1-----1-|-3-----3---1-|
|-2p0---2p0-------0h2p0---|---0-----0-----0-----0---|-----0---0---|
|-----4-----4---4-------4-|-------------------------|---0---------|
|-5-----------5-----------|-------------3-----3-----|-------------|
|-------------------------|-0-----0-----------------|-3-----3-----|

|-5-----5-----|-------2---|
|-----3-----3-|-----3---3-|
|---2-----2---|---2-------|
|-0-----0-----|-0---------|
|-------------|-----------|
|-------------|-----------|

OUTRO (5:22-5:47)
|-------------|-------3p0---|-------------|-------3p0-----|
|-3-----3p0---|-1---------1-|-3-----3p0---|-1---------1---|
|-----0-----0-|-----0-------|-----0-----0-|-----0-------0-|
|---2---------|---2---------|---2---------|---2-----------|
|-------------|-3-----------|-------------|-3-------------|
|-0-----------|-------------|-0-----------|---------------|
comments
print report bad tab
8 comments total. Showing first comments.
+5 reply
RollingChord wrote on December 4 2011, 01:19 pm

Cheers. Good tab. Been waiting for ages for someone to post a decent guitar version of this.

+2 reply
Chris 10B wrote on December 10 2011, 11:17 am

how accurate is this?

+3 reply
PaulFECO wrote on December 10 2011, 12:45 pm

This is awesome thank you

I want to post or [tab]
guest
You may want to rate the tab now too:
select rating
Please do not post tabs as comments. Select "correction" instead!