Oops, an error
Loading. Please wait.

Nuvole Bianche tab

version 2
version 2

Whole song

  • This is an accurate tab of the piece that I play i... Show more
  • Tune down the 5th String from A to G, and the rest... Show more

Interactive

18,863 views 36 this week
no commentswrite comment
1 2 3 4 5
x 5
add to favorites
×
Save as Personal and add changes to this tab that will be seen only by you. Learn more ›
×
You can save this tab as Personal to edit and correct it or add notes. All changes will be seen only by you. Learn more »
launch autoscroll
font size
0
reset
how to read this tab
guitar tuner
edit
Autoscroll
slow
fast
+/-
esc
set tempo
stop
~
e|--0--0-------------|----------------|
B|--0--1--0----------|--0--1--0-------|
G|--0--0--0--2-------|--0--0--0--2----|
D|-----------0--4----|--2--2-----0----|
A|-----3-------------|-----3----------|
E|--0-----3--2-------|--0-----3--2----|


e|-------------------------------|----------------------|
B|-------------------------------|----------------------|
G|--2h-0---0---0---2h-0-----0----|--2h-0--0--0--2h-0--0-|
D|-------------------------------|----------------------|
A|-------------------------------|--3-----------3-------|
E|--0--------------0-------------|----------------------|


e|-------------------------------|------------------------|
B|--1h-0---0---0---1h-0--0-------|--0--------------1h-0---|
G|-------------------------------|--------2--2----------2-|
D|--------------------------0----|--------------0---------|
A|-------------------------------|------------------------|
E|--3--------------3-------------|--2---------------------|


e|-------------------------------|
B|-------------------------------|
G|--2h-0---0---0---2h-0-----0----|
D|0-2----------------------------|
A|--2----------------------------|
E|--0----------------------------|

e|-------------------------------|
B|-------------------------------|
G|-------------------------------|
D|--4h-2---2---2---4h-2-----2----|
A|--3----------------------------|
E|-------------------------------|


e|-------------------------------|
B|-----0---0---0---1h-0-----0----|
G|--0----------------------------|
D|2-0----------------------------|
A|-------------------------------|
E|--3----------------------------|


e|-------------------------------|
B|--0--------------1h-0----------|
G|-----2---2---0------------2----|
D|0------------------------------|
A|-------------------------------|
E|--2----------------------------|

        ~
e|------------------------------|
B|------------------------------|
G|-----2h-0---------0-------0---|
D|--2--2------------------2-----|
A|----------------2-------------|
E|-----0------------------------|

  
e|----------------------|----------------------|----------------------|
B|----------------------|----------------------|--1h-0-----0-----0----|
G|--2h-0-----0-----0----|--2h-0-----0-----0----|----------------------|
D|--------2-----2-------|--------2-----2-------|--------0-----0-------|
A|--2-------------------|--3-------------------|----------------------|
E|----------------------|----------------------|--3-------------------|


e|----------------------|----------------------|----------------------|
B|--1h-0-----0----------|--0-------------------|--1h-0----------------|
G|----------------------|-----2-----2-----2----|-----------2--------0-|
D|--------0-----0--0----|--------0-----0-------|----------------------|
A|----------------------|----------------------|----------------------|
E|--3-------------------|--2-------------------|--3-------------------|

       ~
e|-------------------------------|
B|-------------------------------|
G|-----2h-0-------0------0-------|
D|--2--2--------------2----------|
A|--------------2----------------|
E|-----0-------------------------|


e|----------------------|----------------------|----------------------|
B|----------------------|----------------------|----------------------|
G|--2h-0-----0-----0----|----------------------|----------------------|
D|--------2-----2-------|--4h-2-----2-----2----|--4h-2-----2-----2----|
A|--2-------------------|--3-----3-----3-------|--3-----3-----3-------|
E|----------------------|----------------------|----------------------|


e|----------------------|----------------------|----------------------|
B|-----0-----0-----0----|--1h-0-----0----------|--0-------------------|
G|--0-------------------|----------------------|-----2-----2----------|
D|--------0-----0-------|--------0-----0--0----|-----------------0----|
A|----------------------|----------------------|----------------------|
E|--3-------------------|--3-------------------|--2-------------------|


e|----------------------|
B|--1h-0----------------|
G|------------2---------|
D|----------------------|
A|----------------------|
E|----------------------|

       ~
e|----------------------|----------------------|
B|----------------------|-----0----------------|
G|-----0------0---------|--2-----2h-0---------0|
D|--0--2---2-----2------|-------------------2--|
A|-----------------2----|-----------------3----|
E|-----0-------------0--|--------------0-------|

                                       ~
e|----------------------|----------------------|----------------------|
B|----------------------|-----0--------0-------|----------------------|
G|----------------------|--2-----2h-0--0------0|----------------------|
D|-----------2----------|-------------------0--|--------------0-------|
A|----------------------|-----------------2----|----------------------|
E|----------------------|--------------3-------|----------------------|

                ~                                       ~
e|----------------------|----------------|----------------------|-----|
B|-----0----------------|----------------|-----0----------------|-----|
G|--2-----2h-0--0------0|----------------|--2-----2h-0--2h-0---0|-----|
D|--------------0----0--|-----------4----|--------------2----2--|---2-|
A|-----------------0----|----------------|----------------------|-----|
E|--------------2-------|----------------|--------------0-------|-----|

                ~
e|----------------------------|
B|-----0----------------------|
G|--2-----2h-0--0h-2h-0----0--|
D|--------------2--------2----|
A|--------------3-------------|
E|----------------------------|


e|-----------------------------|
B|-----0-----------------------|
G|--2-----2h-0-----2h-4--------|
D|-----------------------------|
A|-----------------------------|
E|--------------3--------------|

                              ~
e|-------------|-------------------|-----0----------------|
B|-------------|-----0-------------|-----1--------1-------|
G|-------------|--2-----2h-0--2----|--0--0-----0----------|
D|--------0----|--------------0----|--------2----------2--|
A|-----2-------|-------------------|-----3----------------|
E|--3----------|--------------2----|----------------------|

              ~
e|--------------|-----------------|----------------|
B|-3h1h0h-1---3-|------0-----0----|--1h-0----------|
G|------------0-|------0-----0----|--------2--0----|
D|------------0-|---0-------------|----------------|
A|--------------|2--------2-------|----------------|
E|------------3-|-----------------|--3-------------|

                           ~
e|--0-----------|-----------------|------------------------------|----|
B|--1-----1-----|3h1h0h-1--3------|-------0-----0--1h-0----------|----|
G|--0--------0--|----------0------|-------0-----0--------2--0----|----|
D|-----2--------|----------0------|----0-------------------------|----|
A|--3-----------|-----------------|-2--------2-------------------|----|
E|--------------|----------3------|----------------3-------------|----|

    ~                       ~
e|----------------------|----------------------|----------------------|----|
B|----------------------|-----------0----------|-----------0----------|----|
G|--0-----2h-0-----2----|--2-----2-----2h-0----|--------2-----2h-0----|----|
D|--2-----------4-------|--0-------------------|----------------------|----|
A|--3-------------------|--0-------------------|-----2----------------|----|
E|--3-------------------|--2-------------------|--0-------------------|----|


e|----------------------|----------------------|----------------------|
B|-----------0----------|----------------------|-----0--------0-------|
G|--------2-----2h-0----|-----------0----------|--2-----2h-0-----0h---|
D|----------------------|-----0h-2--------2----|----------------------|
A|-----2----------------|--3-------------------|----------------------|
E|--0-------------------|----------------------|--------------3-------|


e|----------------|----------------------|
B|-----0----------|--0--------0----------|
G|--2-----2h-0----|-----0h-2-----2h-0----|
D|----------------|----------------------|
A|----------------|----------------------|
E|----------------|--3-------------------|


e|-------------------------------------------------|----------------------|
B|-------------------------------------------------|-----------3----------|
G|-----------------------0-------------------------|--0--2h-0--0--0h-2----|
D|--0--------------0-----------------4-------------|----------------------|
A|-----------0-------------------------------------|----------------------|
E|--2----------------------------------------------|-----------0----------|


e|-------------|----------------------|----------------------|
B|--0----------|--3--------0----------|--3--------0----------|
G|-----2h-0----|--0--0h-2-----2h-0----|--0--0h-2-----2h-0----|
D|-------------|----------------------|----------------------|
A|-------------|----------------------|--3-------------------|
E|-------------|--0-------------------|----------------------|


e|----------------------|------------------------|----------------------|
B|--3--------0----------|----3--------0----------|--3--------0----------|
G|--0--0h-2-----2h-0----|-------0h-2-----2h-0----|-----0h-2-----2h-0----|
D|----------------------|------------------------|----------------------|
A|--3-------------------|------------------------|----------------------|
E|----------------------|----3-------------------|--3-------------------|

                                                    2x
e|----------------------|------------------------|----------------------|
B|--3--------0----------|----3--------3----------|----------------------|
G|-----0h-2-----2h-0----|-------2--------2-------|--0--------0----------|
D|--0-------------------|----------0--------0----|-----4h-2-----4h-2----|
A|----------------------|------------------------|----------------------|
E|----------------------|------------------------|--0-------------------|


e|----------------------|----------------------|----------------------|
B|--0-------------------|----------------------|--0-------------------|
G|-----------0----------|--0--------0----------|-----------0----------|
D|-----2h-4-----4h-2----|-----4h-2-----4h-2----|-----2h-4-----4h-2----|
A|----------------------|--3-------------------|--3-------------------|
E|--0-------------------|----------------------|----------------------|


e|----------------------|----------------------|----------------------|
B|--0--------0----------|--3--------0----------|----------------------|
G|-----2h-0-----2h-0----|-----0h-2-----2h-0----|--2h-0-----2h-0-------|
D|----------------------|----------------------|--0-----4--------4----|
A|----------------------|----------------------|----------------------|
E|--3-------------------|--3-------------------|--2-------------------|

                         2x
e|----------------------|--3--------2----------|--0-------------------|
B|--3--------0----------|-----0--------0-------|-----------3--1-------|
G|-----0--2-----2h-0----|--------0--------0----|--------0-------------|
D|----------------------|----------------------|-----2----------------|
A|----------------------|----------------------|--3-------------------|
E|--2-------------------|--0-------------------|----------------------|


e|----------------------|----------------------|--3-----2-----0-------|
B|--3--------3----------|--3--------3----------|-----0-----0-----0----|
G|--------0-----0-------|--------0-----0-------|----------------------|
D|-----0-----------0----|-----0-----------0----|----------------------|
A|----------------------|----------------------|----------------------|
E|--3-------------------|--2-------------------|--0-------------------|


e|--0-------------------|----------------------|----------------------|
B|-----------3--1-------|--3--------3----------|--3--------3----------|
G|--------0-------------|--------0-----0-------|--------0-----0-------|
D|-----2----------------|-----0-----------0----|-----0-----------0----|
A|--3-------------------|----------------------|----------------------|
E|----------------------|--3-------------------|--2-------------------|



e|-----------------2----|
B|--------------2-------|
G|-----------2----------|
D|--------4-------------|
A|-----5----------------|
E|--3-------------------|



************************************

| h  Hammer-on

************************************

            
            
Suggest correction
Creating personal tab
Creating personal tab
You can edit any tab online and save it as your Personal.

You can edit, replace or remove any tab part or add personal notes – all changes will be seen only by you.

Personal tabs can be accessed anytime from any device, even offline.
Learn more »
comments
print report bad tab
guest
Wanna post a correction for this tab? Suggest correction