Oops, an error
Loading. Please wait.

Nuvole Bianche tab

version 3
version 3

Whole song

  • This is an accurate tab of the piece that I play i... Show more
  • Tune down the 5th String from A to G, and the rest... Show more

Interactive

4,807 views 15 this week
no commentswrite comment
1 2 3 4 5
x 6
add to favorites
×
Save as Personal and add changes to this tab that will be seen only by you. Learn more ›
×
You can save this tab as Personal to edit and correct it or add notes. All changes will be seen only by you. Learn more »
launch autoscroll
font size
0
reset
how to read this tab
guitar tuner
edit
Autoscroll
slow
fast
+/-
esc
set tempo
stop
About this tab version
This is an accurate tab of the piece that I play in the classical guitar version of Nuvole bianche, found on YouTube. Was this info helpful? Yes No
Nuvole bianche - Classical Arrangement by SamwiseButtie
Tabbed by:SamwiseButtie
Link to video: https://www.youtube.com/watch?v=rsJ7d8Hl7f8 
Tuning:Standard - Capo on 1st Fret for correct pitch

e|-------------------|----------------|
B|--0--1--0----------|--0--1--0-------|
G|--0--0--0--2-------|--0--0--0--2----|
D|--2--2--0--0--4----|--2--2--0--0----|
A|-----3-------------|-----3----------|
E|--0-----3--2-------|--0-----3--2----|

e|-------------------------------|------------------------|
B|-------------------------------|------------------------|
G|--2p-0---0---0---2p-0--0--0----|--2p-0--0--0--2p-0--0--0|
D|--2--------------2-------------|--2-----------2---------|
A|-------------------------------|--3---------------------|
E|--0----------------------------|------------------------|

e|-------------------------------|------------------------|
B|--1p-0---0---0---1p-0--0-------|--0--------------1p-0---|
G|--0--------------0-------------|--------2--2----------2-|
D|--------------------------0----|--------------0---------|
A|-------------------------------|------------------------|
E|--3----------------------------|--2---------------------|

e|-------------------------------|
B|-------------------------------|
G|--2p-0---0---0---2p-0--0--0----|
D|0-2--------------2-------------|
A|--2----------------------------|
E|--0----------------------------|

e|-------------------------------|
B|-------------------------------|
G|-------------------------------|
D|--4p-2---2---2---4p-2--2--2----|
A|--3--------------3-------------|
E|-------------------------------|

e|-------------------------------|
B|-----0---0---0---1p-0----0-----|
G|-----------------0-------------|
D|--0--------------------------0-|
A|-------------------------------|
E|--3----------------------------|

e|-------------------------------|
B|--0--------------1p-0----------|
G|-----2---2---------------2-----|
D|-------------0---------------0-|
A|-------------------------------|
E|--2----------------------------|

e|----------------------------|
B|----------------------------|
G|---2p-0---------0-------0---|
D|---2------------------2-----|
A|---2----------2-------------|
E|---0------------------------|

                          [      Repeat      ]  
e|----------------------|----------------------|----------------------|
B|----------------------|----------------------|--1p-0-----0-----0----|
G|--2p-0-----0-----0----|--2p-0-----0-----0----|--0-------------------|
D|--------------2-------|--2-----2-----2-------|--------0-----0-------|
A|--------2-------------|--3-------------------|----------------------|
E|--0-------------------|----------------------|--3-------------------|

e|----------------------|----------------------|----------------------|
B|--1p-0-----0----------|--0-------------------|--1p-0----------------|
G|--0-------------------|-----2-----2-----2----|--0--------2--------0-|
D|--------0-----0--0----|--------0-----0-------|--------0------0------|
A|----------------------|----------------------|----------------------|
E|----------------------|--2-------------------|----------------------|

       ~
e|-------------------------------|
B|-------------------------------|
G|-----2p-0-------0------0-------|
D|-----2--------------2----------|
A|-----2--------2----------------|
E|-----0-------------------------|

e|----------------------|----------------------|----------------------|
B|----------------------|----------------------|----------------------|
G|--2p-0-----0-----0----|----------------------|----------------------|
D|--------2-----2-------|--4p-2-----2-----2----|--4p-2-----2-----2----|
A|--2-------------------|--3-----3-----3-------|--3-----3-----3-------|
E|----------------------|----------------------|----------------------|

e|----------------------|----------------------|----------------------|
B|-----0-----0-----0----|--1p-0-----0----------|--0-------------------|
G|--0-------------------|--0-------------------|-----2-----2------2---|
D|--------0-----0-------|--------0-----0--0----|--------0-----0-------|
A|----------------------|----------------------|----------------------|
E|--3-------------------|----------------------|--2-------------------|

e|----------------------|
B|--1p-0----------------|
G|--0---------2---------|
D|--------0-----------0-|
A|----------------0-----|
E|----------------------|

       ~
e|----------------------|----------------------|--------------|
B|----------------------|-----0----------------|--------------|
G|-----0------0---------|--2-----2p-0---------0|--------------|
D|-----2---2-----2------|----------------0h-2--|------2-------|
A|-----2-----------2----|--------------3-------|--------------|
E|-----0-------------0--|----------------------|--------------|

e|----------------------|----------------------|
B|-----0--------0-------|----------------------|
G|--2-----2p-0--0------0|----------------------|
D|-------------------0--|--------0-------------|
A|-----------------2----|----------------------|
E|--------------3-------|----------------------|

                ~                                       
e|----------------------|----------------|----------------------|-----|
B|-----0----------------|----------------|-----0----------------|-----|
G|--2-----2p-0--2------0|----------------|--2-----2p-0--2p-0---0|-----|
D|-------------------0--|-------4--------|--------------2-------|---2-|
A|-----------------0----|----------------|-------------------2--|-----|
E|--------------2-------|----------------|--------------0-------|-----|
              
e|----------------------------|--------|
B|-----0----------------------|--------|
G|--2-----2p-0--2p--0-----0 --|--------|
D|--------------2------2------|--------|
A|--------------3-------------|----3---|
E|----------------------------|--------|

e|----------------------|------------|
B|-----0----------------|------------|
G|--2-----2p-0---2h-4---|------------|
D|----------------------|--------0---|
A|----------------------|----2-------|
E|---------------3------|------------|

e|-------------------|-----0----------------|
B|-----0-------------|-----1--------1-------|
G|--2-----2p-0--2----|--0--0-----0-------0--|
D|--------------0----|--------2-------------|
A|-------------------|-----3----------------|
E|--------------2----|----------------------|

e|----------------|-----------------|----------------|
B|-3p-1--0h-1---3-|--------0-----0--|--1p-0----------|
G|--------------0-|-----0-----0-----|--------2--0----|
D|----------------|--0--------------|----------------|
A|----------------|-----------------|----------------|
E|--------------3-|-----------------|--2-------------|

e|--0------------|--------------------|------------------------------|
B|--1------1-----|-3p-1h-0h-1--3------|-------0-----0--1p-0----------|
G|--0----0----0--|-------------0------|----0-----0-----0-----2--0----|
D|-----2---------|-------------0------|--0---------------------------|
A|--3------------|--------------------|------------------------------|
E|---------------|-------------3------|----------------2-------------|

    ~                       
e|----------------------|----------------------|----------------------|
B|----------------------|-----------0----------|-----------0----------|
G|--0-----2p-0-----0----|--2-----2-----2p-0----|--------2-----2p-0----|
D|--2-----------4-------|--0---0---------------|--2-------------------|
A|--3-------------------|----------------------|-----2----------------|
E|--3-------------------|--2-------------------|--0-------------------|

e|----------------------|----------------------|----------------------|
B|-----------0----------|----------------------|-----0--------0-------|
G|--------2-----2p-0----|-----------0----------|--2-----2p-0--0-------|
D|--2-------------------|-----0h-2--------2----|--------------0-------|
A|-----2----------------|--3-------------------|----------------------|
E|--0-------------------|----------------------|--------------3-------|

e|------------------|----------------------|
B|-------0----------|--0--------0----------|
G|-0h-2-----2p-0----|--0--0h-2-----2p-0----|
D|------------------|--0-------------------|
A|------------------|----------------------|
E|------------------|--3-------------------|

e|-----------------------------------------|----------------------|
B|-----------------------------------------|-----------3----------|
G|--2------------0-------------------------|--0--2p-0--0--0h-2----|
D|----------0---------------4--------------|-----------2----------|
A|------0----------------------------------|----------------------|
E|--2--------------------------------------|-----------0----------|

e|-------------|----------------------|----------------------|
B|--0----------|--3--------0----------|--3--------0----------|
G|-----2p-0----|--0--0h-2-----2p-0----|--0--0h-2-----2p-0----|
D|-------------|--2-------------------|--2-------------------|
A|-------------|----------------------|--3-------------------|
E|-------------|--0-------------------|----------------------|

e|----------------------|------------------------|----------------------|
B|--3--------0----------|----3--------0----------|--3--------0----------|
G|--0--0h-2-----2p-0----|----0--0h-2-----2p-0----|--0--0h-2-----2p-0----|
D|--2-------------------|----0-------------------|--0-------------------|
A|--3-------------------|------------------------|----------------------|
E|----------------------|----3-------------------|--3-------------------|

                                                  [[x2 marker
e|----------------------|------------------------|----------------------|
B|--3--------0----------|----3--------3----------|----------------------|
G|-----0h-2-----2h-0----|-------2--------2-------|--0--------0----------|
D|--0-------------------|----0-----0--------0----|-----4p-2-----4p-2----|
A|----------------------|------------------------|----------------------|
E|----------------------|------------------------|--0-------------------|

e|----------------------|----------------------|----------------------|
B|--0-------------------|----------------------|----------------------|
G|-----------0----------|--0--------0----------|--5--------0----------|
D|-----2h-4-----4p-2----|-----4p-2-----4p-2----|-----2h-4-----4h-2----|
A|----------------------|--3-------------------|--3-------------------|
E|--0-------------------|----------------------|----------------------|

e|----------------------|----------------------|----------------------|
B|--0--------0----------|--3--------0----------|----------------------|
G|-----2p-0-----2p-0----|-----0h-2-----2p-0----|--2p-0-----2p-0-------|
D|----------------------|----------------------|--0-----4--------4----|
A|----------------------|----------------------|----------------------|
E|--3-------------------|--3-------------------|--2-------------------|

                  x2]]   [[x2 marker
e|----------------------|--3----------2----------|--0-------------------|
B|--3-------------------|---------0------0-------|-----------3-----1----|
G|--------0--2p-0-------|-----0-------------0----|--------0-----0-------|
D|-----4-----------4----|------------------------|-----2----------------|
A|----------------------|------------------------|--3-------------------|
E|--2-------------------|--0---------------------|----------------------|

e|----------------------|----------------------|--3-----2-----0-------|
B|--3--------3----------|--3--------3----------|-----0-----0-----0----|
G|--------0-----0-------|--------0-----0-------|----------------------|
D|-----0-----------0----|-----0-----------0----|----------------------|
A|----------------------|----------------------|----------------------|
E|--3-------------------|--2-------------------|--0-------------------|

                                              *[Skip this bar on repeat]*
e|--0-------------------|----------------------|----------------------|
B|-----------3--1-------|--3--------3----------|--3--------3----------|
G|--------0-------------|--------0-----0-------|--------0-----0-------| x2]]
D|-----2----------------|-----0-----------0----|-----0-----------0----|
A|--3-------------------|----------------------|----------------------|
E|----------------------|--3-------------------|--2-------------------|

e|------------------2-----|------------------------------------|---------------------------|
B|--3---------------------|------------------------------------|-------------------------0-|
G|-----------2------------|--2--------0------2------0----------|---2-------0------2--------|
D|--------4----4----------|--2------2------2------2-------2----|---2-----2------2------2---|
A|-----5----------5-------|--2----2------2------2-------2------|---3---3------3------3-----|
E|--2---------------------|--0---------------------------------|---------------------------|

e|-----------------------------|-----------------------------|
B|-----------------------0-----|----------0-------------0----|
G|-2-------0------2------------|--2--------------2-----------|
D|-2-----2------2------2------2|--2-----2------2------2------|
A|-2---2------2------2------2--|--3---3------3------3--------|
E|-0---------------------------|-----------------------------|

************************************

| p  Pull-off
| ~  Vibrato
| h  Hammer-on

************************************

            
            
Suggest correction
Creating personal tab
Creating personal tab
You can edit any tab online and save it as your Personal.

You can edit, replace or remove any tab part or add personal notes – all changes will be seen only by you.

Personal tabs can be accessed anytime from any device, even offline.
Learn more »
comments
print report bad tab
guest
You may want to rate the tab now too:
select rating
Wanna post a correction for this tab? Suggest correction