Oops, an error
Loading. Please wait.

Greendale Is Where I Belong Tab

version 1
version 1

Whole song

21,276 views 33 this week
3 commentsread comments
1 2 3 4 5
x 24
add to favorites
launch autoscroll
font size
0
reset
how to read this tab
guitar tuner
×
Best way to learn
"Greendale Is Where I Belong"
Autoscroll
slow
fast
+/-
esc
set tempo
stop
Author
Standard Tuning (E A D G B e)

Triplet feel
e|-----------------|-----------------|-----------------|----------------|
B|------7------7---|------5------5---|------3------3---|------3------3--|
G|-----------------|-----------------|-----------------|----------------|
D|----7-----7------|----7-----7------|----4-----4------|----4-----4-----|
A|-5-----(5)-------|-4-----(4)-------|-2-----(2)-------|-0-----(0)------|
E|-----------------|-----------------|-----------------|----------------|

e|-----------------|-----------------|-----------------|----------------|
B|------3------3---|------3------3---|------7------7---|------7------7--|
G|-----------------|-----------------|-----------------|----------------|
D|----4-----4------|----4-----4------|----5-----5------|----5-----5-----|
A|-----------------|-----------------|-----------------|-0-----(0)------|
E|-3-----(3)-------|-2-----(2)-------|-0-----(0)-------|----------------|

This is the vocal part, if you want to play it on guitar.
It's pretty much the same all the way through, with some slight variations.

e|--------5--------|--------5--------|-----------------|----------------|
B|----------7------|----------7------|--------7--------|--------7-------|
G|-----------------|-----------------|----------7------|----------7-----|
D|-----------------|-----------------|-----------------|----------------|
A|-----------------|-----------------|-----------------|----------------|
E|-----------------|-----------------|-----------------|----------------|

e|-----------------|-----------------|-----------------|----------------|
B|-----------------|--------7--------|-----------------|----------------|
G|--------7--------|----------7------|--------7--------|--------9-7-----|
D|----------9------|-----------------|----------9------|----------------|
A|-----------------|-----------------|-----------------|----------------|
E|-----------------|-----------------|-----------------|----------------|


************************************

| (n)  Ghost note

************************************
Suggest correction
comments
print report bad tab
3 comments total.
0 reply
tao072002 30 Oct 24, 2012 03:24 PM

community's just so great :')
good tab

0 reply
jerbear938 10 Apr 06, 2013 07:20 PM

damn dat fingering hard when u have to switch from the first 5/7/7 to the 4/7/5, pretty tricky but really nice tab

+4 reply
splatt9198 10 Jul 12, 2015 06:50 PM

Here is a slightly easier version of the main progression that I made based off of this tab!

|------2------2---|------0------0---|-----------------|----------------|
|-----------------|-----------------|------3------3---|------3------3--|
|----2-----2------|----2-----2------|-----------------|----------------|
|-0-----(0)-------|-----------------|----4-----4------|----4-----4-----|
|-----------------|-4-----(4)-------|-2-----(2)-------|-0-----(0)------|
|-----------------|-----------------|-----------------|----------------|

|-----------------|-----------------|------2------2---|------2------2--||
|------3------3---|------3------3---|-----------------|----------------||
|-----------------|-----------------|----0-----0------|----0-----0-----||
|----4-----4------|----4-----4------|-----------------|----------------||
|-----------------|-----------------|-----------------|-0-----(0)------||
|-3-----(3)-------|-2-----(2)-------|-0-----(0)-------|----------------||

guest
You may want to rate the tab now too:
select rating
Wanna post a correction for this tab? Suggest correction