Oops, an error
Loading. Please wait.

Greendale Is Where I Belong Tab

version 2
version 2

Whole song

6,111 views 21 this week
no commentswrite comment
1 2 3 4 5
x 10
add to favorites
launch autoscroll
font size
0
reset
how to read this tab
guitar tuner
Autoscroll
slow
fast
+/-
esc
set tempo
stop
Help us to improve Ultimate-Guitar.com Take our survey!
×
Author
Ludwig Göransson - Greendale Is Where I Belong
I think this is a more accurate tab that picks up the small variations in the song 
that the other tab posted does not.

Standard Tuning
Tabbed by: Tim Peng
                      
e|--------------------------------------------------|
B|--7-7---5-5---3-3---3-3---3-3---3-3---7-7---7-7---|
G|--------------------------------------------------|
D|-7-7---7-7---4-4---4-4---4-4---4-4---5-5---5-5----|
A|5-----4-----2-----0-------------------------------|
E|------------------------3-----2-----0-----5-------|x4


e|----------------------------------------------3---|
B|--3-3---3-3---3-3---3-3---3-3---3-3---3-3---3-----|
G|-2-2---2-2---2-2---2-2---2-2---2-2---2-2---2-2----|
D|0-----------------------0-------------------------|
A|------3-----2-----------------3-----2-------------|
E|------------------3-----------------------3-------|


e|--------------------------------------------------|
B|--3-3---3-3---3-3---3-3---3-3---3-3---3-3---3-3-2-|
G|-2-2---2-2---2-2---2-2---2-2---2-2---2-2---2-2--2-|
D|0-----------------------0-----0-----------------2-|
A|------3-----2-----------------------0-----0-----0-|
E|------------------3-------------------------------|
                                               Let A ring

e|--------------------------------------------------|
B|--7-7---5-5---3-3---3-3---3-3---3-3---7-7---------|
G|--------------------------------------------------|
D|-7-7---7-7---4-4---4-4---4-4---4-4---5-5----------|
A|5-----4-----2-----0-------------------------------|
E|------------------------3-----2-----0-------------|


e|--------------------------------------------------|
B|--7-7---5-5---3-3---3-3---3-3---3-3---7-7---7-7---|
G|--------------------------------------------------|
D|-7-7---7-7---4-4---4-4---4-4---4-4---5-5---5-5----|
A|5-----4-----2-----0-------------------------------|
E|------------------------3-----2-----0-----5-------|
Suggest correction
comments
print report bad tab
guest
You may want to rate the tab now too:
select rating
Wanna post a correction for this tab? Suggest correction