Oops, an error
Loading. Please wait.
236,562 views 2,802 this week
20 commentsread comments
1 2 3 4 5
accurate
x 36
add to favorites
launch autoscroll
font size
0
reset
how to read this tab
guitar tuner
Autoscroll
slow
fast
+/-
esc
set tempo
stop
Help us to improve Ultimate-Guitar.com Take our survey!
×
[Part A]

e|-12--11--||-12--11--12--------------|-------------------------|
B|---------||-------------12--15--13--|-------------------------|
G|---------||-------------------------|-14------------------14--|
D|---------||-------------------------|-----------------14------|
A|---------||-------------------------|-0-------12--15----------|
E|---------||-------------------------|-----12------------------|

 
e|-------------------------|-----------------12--11--|
B|-12------------------12--|-13----------------------|
G|-----------------13------|-------------------------|
D|-------------14----------|-------------14----------|
A|---------11--------------|-0-------12--------------|
E|-0---12------------------|-----12------------------|

    
e|-12--11--12--------------|-------------------------|
B|-------------12--15--13--|-------------------------|
G|-------------------------|-14------------------14--|
D|-------------------------|-----------------14------|
A|-------------------------|-0-------12--15----------|
E|-------------------------|-----12------------------|

 
e|-------------------------|------------------12--11--|
B|-12--------------13--12--|--------------------------|
G|-------------------------|-14-----------------------|
D|-------------14----------|--------------------------|
A|---------11--------------|-0-------12---------------|
E|-0---12------------------|-----12-------------------|
 
 
e|-12--11--12--------------|-------------------------|
B|-------------12--15--13--|-------------------------|
G|-------------------------|-14------------------14--|
D|-------------------------|-----------------14------|
A|-------------------------|-0-------12--15----------|
E|-------------------------|-----12------------------|
 
 
e|-------------------------|-----------------12--11--|
B|-12------------------12--|-13----------------------|
G|-----------------13------|-------------------------|
D|-------------14----------|-------------14----------|
A|---------11--------------|-0-------12--------------|
E|-0---12------------------|-----12------------------| 
 
 
e|-12--11--12--------------|-------------------------|
B|-------------12--15--13--|-------------------------|
G|-------------------------|-14------------------14--|
D|-------------------------|-----------------14------|
A|-------------------------|-0-------12--15----------|
E|-------------------------|-----12------------------|

 
e|-------------------------|-------------------------||
B|-12--------------13--12--|-------------12--13--15--||
G|-------------------------|-14----------------------||
D|-------------14----------|-------------------------|| x2
A|---------11--------------|-0-------12--------------||
E|-0---12------------------|-----12------------------||


[Part B]
  
e||-12--------------13--12--|-10--------------12------|
B||-------------------------|--------(0)----------15--|
G||-------------12----------|----(0)------------------|
D||---------10--------------|-------------15----------|
A||-----10------------------|-----10--14--------------|
E||-8-----------------------|-3-----------------------| 
 
 
e|-------------------------|-----------------12------|
B|-13--------------15--13--|-12----------------------|
G|-------------------------|-------------------------|
D|-------------14----------|---------14--14----------|
A|-0-------12--------------|-------------------------|
E|-----12------------------|-0---12--------------0---| 
 
 
e|-----12--24----------10--|-12----------11--12--11--||
B|-------------------------|-------------------------||
G|-------------------------|-------------------------||
D|-------------------------|-------------------------|| x2
A|-------------------------|-------------------------||
E|-12----------11--12------|-----11--12--------------||
 
 
[Part A]
 
e||-12--11--12--------------|-------------------------|
B||-------------12--15--13--|-------------------------|
G||-------------------------|-14------------------14--|
D||-------------------------|-----------------14------|
A||-------------------------|-0-------12--15----------|
E||-------------------------|-----12------------------|

    
e|-------------------------|-----------------12--11--|
B|-12------------------12--|-13----------------------|
G|-----------------13------|-------------------------|
D|-------------14----------|-------------14----------|
A|---------11--------------|-0-------12--------------|
E|-0---12------------------|-----12------------------|
 
 
e|-12--11--12--------------|-------------------------|
B|-------------12--15--13--|-------------------------|
G|-------------------------|-14------------------14--|
D|-------------------------|-----------------14------|
A|-------------------------|-0-------12--15----------|
E|-------------------------|-----12------------------|
 
 
e|-------------------------|-------------------------||
B|-12--------------13--12--|-------------12--13--15--||
G|-------------------------|-14----------------------||
D|-------------14----------|-------------------------|| x2
A|---------11--------------|-0-------12--------------||
E|-0---12------------------|-----12------------------||
 

[Part B]
  
e||-12--------------13--12--|-10--------------12------|
B||-------------------------|--------(0)----------15--|
G||-------------12----------|----(0)------------------|
D||---------10--------------|-------------15----------|
A||-----10------------------|-----10--14--------------|
E||-8-----------------------|-3-----------------------|
  
  
e|-------------------------|-----------------12------|
B|-13--------------15--13--|-12----------------------|
G|-------------------------|-------------------------|
D|-------------14----------|---------14--14----------|
A|-0-------12--------------|-------------------------|
E|-----12------------------|-0---12--------------0---|
   
   
e|-----12--24----------10--|-12----------11--12--11--||
B|-------------------------|-------------------------||
G|-------------------------|-------------------------||
D|-------------------------|-------------------------|| x2
A|-------------------------|-------------------------||
E|-12----------11--12------|-----11--12--------------||


[Part A]

e||-12--11--12--------------|-------------------------|
B||-------------12--15--13--|-------------------------|
G||-------------------------|-14------------------14--|
D||-------------------------|-----------------14------|
A||-------------------------|-0-------12--15----------|
E||-------------------------|-----12------------------|
 
 
e|-------------------------|-----------------12--11--|
B|-12------------------12--|-13----------------------|
G|-----------------13------|-------------------------|
D|-------------14----------|-------------14----------|
A|---------11--------------|-0-------12--------------|
E|-0---12------------------|-----12------------------|
   
   
e|-12--11--12--------------|-------------------------|
B|-------------12--15--13--|-------------------------|
G|-------------------------|-14------------------14--|
D|-------------------------|-----------------14------|
A|-------------------------|-0-------12--15----------|
E|-------------------------|-----12------------------|
    
        
e|-------------------------|-------------8---8---8---||
B|-12--------------13--12--|---------------------0---||
G|-------------------------|-14----------9---10--0---|| x2
D|-------------14----------|-------------10--10--10--||
A|---------11--------------|-0-------12--13--12--13--||
E|-0---12------------------|-----12------------------||
  

  
  
Alternative Version
 
   
e|---------12-11||12-11-12-7-10-8|-5---------5|-7-----0-4-7|
B|--------------||---------------|---------5--|------------|
G|--------------||---------------|-------5----|------------|
D|--------------||---------------|-----7------|-----6------|
A|--------------||---------------|---7--------|---7--------|
E|--------------||---------------|-5----------|-0----------| 
   
   
e|-8-----0-12-11|12-11-12-7-10-8|-5---------5|-7-------8-7|
B|--------------|---------------|---------5--|-------5----|
G|--------------|---------------|-------5----|------------|
D|-----7--------|---------------|-----7------|-----6------|
A|---7----------|---------------|---7--------|---7--------|
E|-5------------|---------------|-5----------|-0----------| 
 
 
e|-5---------||
B|-----------||
G|-----------|| x2
D|-----7-----||
A|---7-------||
E|-5---------||


e|-5-----7-8-10||-12------13-12|10------12-10|
B|-------------||--------8-----|-----0-------|
G|-----2-------||--------------|---0--10-----|
D|---2---------||-----10-------|-------------|
A|-0-----------||---10---------|10-----------|
E|-------------||--8-----------|-------------|
 
 
e|-8------10-8|-7------12--|12+12+5-11-12-11|12-11-12-11-12-11|
B|-------5----|------------|----------------|-----------------|
G|------------|-----9-9---9|----------------|-----------------|
D|-----7------|------------|----------------|-----------------|
A|---7--------|---7--------|----------------|-----------------|
E|-5----------|-0----------|----------------|-----------------|
 
 
e|12-11-12-7-10-8|-5---------5|-7-----0---7|-8-----0-12-11|
B|---------------|---------5--|---------9--|--------------|
G|---------------|-------5----|------------|--------------|
D|---------------|-----7------|-----6------|-----7--------|
A|---------------|---7--------|---7--------|---7----------|
E|---------------|-5----------|-0----------|-5------------|
  
  
e|12-11-12-7-10-8|-5---------5|-7-------8-7|-5-----7-8-10||
B|---------------|---------5--|-------5----|-------------||
G|---------------|-------5----|------------|-----2-------||
D|---------------|-----7------|-----6------|---2---------|| x2
A|---------------|---7--------|---7--------|-0-----------||
E|---------------|-5----------|-0----------|-------------||


e|-5----------|----------1--0|-0-------6--5|-5----------|
B|-------1-1-1|--1-----------|-------------|---8-6-5----|
G|-----2-----3|-2----2---2---|-----7---7---|---------7-5|
D|---2---2-3-2|3---3---3---3-|---8---8---8-|------------|
A|-0-----1-0-1|--------------|-8-----------|-8----------|
E|-----------3|--1-----------|-------------|------------|


e|------------------|------------|-0-----0-1--|
B|------------------|-1-------3-4|-----1------|
G|-3---2---3p2p0h2h3|---2---2---2|---2---2---2|
D|-3----------------|------------|---------0--|
A|---3---3-3--------|-----3---3--|------------|
E|------------------|-1----------|-0----------|


e|-----------------|--3-3-3-3-3-3|-----8--------------3p1--|
B|-1---3p1p0h1-3--0|-1-----0-1-3-|---8--12-10-8-----3-----3|
G|-----------------|---0-2-------|-9-----------10-9--------|
D|---2-----2-----3-|-------------|-------------------------|
A|-----------------|-3-----------|----------8-------2------|
E|-3---3-------3---|-------------|-8-----------------------|


e|--3-3-3-3-3-3|-----8--------------3p1--|
B|-1-----0-1-3-|---8--12-10-8-----3-----3|
G|---0-2-------|-9-----------10-9--------|
D|-------------|-------------------------|
A|-3-----------|----------8-------2------|
E|-------------|-8-----------------------|
   
   *  
e|------------------------|---------0--|-0-----+12--|
B|-5-6-5-4-5---5-4-5---5-4|-5-----0----|-----+12----|
G|-4---------4-------4----|-----------8|----------+8|
D|------------------------|------------|------------|
A|------------------------|------------|------------|
E|-4----------------------|------------|------------|
  
  *   *   *     
e|+12-+12-+12--|12-11-12-7-10-8|-5---------5|-7-----0---7|
B|-------------|---------------|---------5--|---------9--|
G|---+8--+8--+8|---------------|-------5----|------------|
D|-------------|---------------|-----7------|-----6------|
A|-------------|---------------|---7--------|---7--------|
E|-------------|---------------|-5----------|-0----------|
    
    
e|-8-----0-12-11|12-11-12-7-10-8|-5---------5|-7-------8-7|
B|--------------|---------------|---------5--|-------5----|
G|--------------|---------------|-------5----|------------|
D|-----7--------|---------------|-----7------|-----6------|
A|---7----------|---------------|---7--------|---7--------|
E|-5------------|---------------|-5----------|-0----------|
    
    
e|-5-----7-8-10|12------13-12|10------12-10|
B|-------------|-------8-----|-----0-------|
G|-----2-------|-------------|---0--10-----|
D|---2---------|----10-------|-------------|
A|-0-----------|--10---------|10-----------|
E|-------------|-8-----------|-------------|
  
  
e|-8------10-8|-7------12--|12+12+5-11-12-11|12-11-12-11-12-11|
B|-------5----|------------|----------------|-----------------|
G|------------|-----9-9---9|----------------|-----------------|
D|-----7------|------------|----------------|-----------------|
A|---7--------|---7--------|----------------|-----------------|
E|-5----------|-0----------|----------------|-----------------|
  
  
e|12-11-12-7-10-8|-5---------5|-7-----0-4-7|-8-----0-12-11|
B|---------------|---------5--|------------|--------------|
G|---------------|-------5----|------------|--------------|
D|---------------|-----7------|-----6------|-----7--------|
A|---------------|---7--------|---7--------|---7----------|
E|---------------|-5----------|-0----------|-5------------|

    
e|12-11-12-7-10-8|-5---------5|-7-------8-7|
B|---------------|---------5--|-------5----|
G|---------------|-------5----|------------|
D|---------------|-----7------|-----6------|
A|---------------|---7--------|---7--------|
E|---------------|-5----------|-0----------|

    
e|-5----------|-9----------|10------12-13|13------13--|
B|------------|-8----------|10------14-15|15------15--|
G|------------|-9----------|10-----------|13------13--|
D|------------|-8----------|-------------|------------|
A|---0---0---0|-0-0-0-0-0-0|-0-0-0-0-0--0|-0-0-0-0-0-0|
E|-5---5---5--|------------|-------------|------------|
  
  
e|12----------|10-------8-7|-5-------5--|-5---8---7--|
B|13----------|------------|-7----------|------------|
G|14----------|10-------9-7|-5-------5--|-5---9---7--|
D|------------|-0-0-0-0-0-0|-7----------|------------|
A|-0-0-0-0-0-0|-0-0-0-0-0-0|-6-6-6-6-6-6|-0-0-0-0-0-0|
E|------------|------------|-5-5-5-5-5-5|-0-0-0-0-0-0|

    
e|-5----------|------------|---------0-1|-1-------1--|
B|------------|-2----------|-3-------2-3|-3-------3--|
G|-5----------|-0----------|-2----------|------------|
D|------------|-2----------|-3----------|------------|
A|---0---0---0|-0-0-0-0-0-0|-0-0-0-0-0-0|-0-0-0-0-0-0|
E|-5---5---5--|------------|------------|------------|

      
e|-1----------|------------|------------|------------|
B|-3----------|-4-------3-1|------------|------------|
G|------------|-0----------|-3-------2--|-1-------1--|
D|------------|---------3-1|-0-------0--|-0-------0--|
A|-1-1-1-1-1-1|-1-1-1-1-1-1|-1-1-1-1-1-1|-2-2-2-2-2-2|
E|------------|------------|------------|------------|


e|------------|------------|-----------0------|
B|------------|-0----------|---------1---3-1-0|
G|-2----------|-1----------|-2-----2----------|
D|-2----------|-0----------|-----2------------|
A|-3----------|-2----------|-0h3---------0----|
E|-5----------|-0----------|------------------|

                                 *  *  *  *   *  *
e|-------5-8-12-10-8-7|---8-+12-+5-+8-+0-+10-+8-+7|
B|-----5--------------|10-------------------------|
G|---5----------------|---------------------------|
D|-7------------------|---------------------------|
A|-0-------------0----|-0------------------0------|
E|--------------------|---------------------------|

"+0"  should be picked just to the right of the sound hole
(for right handers that is) and the high E should sound.
The exact position will vary depending on your guitar.
This can also be done leaving the left hand on the A (5th fret)
It is important to try and get the harmonics as loud and
as clear a possible.

                          
   *  *  *  *  *  *  *  *  *  *  *  *  *  *  *  *  *  * 
e|+6-+5-+4-+3-+2-+1-+0------|--------------------------|
B|---------------------+4-+3|+2-+1-+0------------------|
G|--------------------------|---------+3-+2-+1-+0------|
D|--------------------------|---------------------+4-+3|
A|-0------------------------|--------------------------|
E|--------------------------|--------------------------|
    
  *  *  *  *   *  *  
e|-----------------|-5---------5|-7-----0-4-7|
B|-----------------|---------5--|------------|
G|-----------------|-------5----|------------|
D|+2-+1-+2----+0---|-----7------|-----6------|
A|---------+2----+3|---7--------|---7--------|
E|-----------------|-5----------|-0----------|

       
e|-8-----0-12-11|12-11-12-7-10-8|-5---------5|-7-------8-7|
B|--------------|---------------|---------5--|-------5----|
G|--------------|---------------|-------5----|------------|
D|-----7--------|---------------|-----7------|-----6------|
A|---7----------|---------------|---7--------|---7--------|
E|-5------------|---------------|-5----------|-0----------|

   
e|-5-----7-8-10|12------13-12|10------12-10|
B|-------------|-------8-----|-----0-------|
G|-----2-------|-------------|---0--10-----|
D|---2---------|----10-------|-------------|
A|-0-----------|--10---------|10-----------|
E|-------------|-8-----------|-------------|
 
   
e|-8------10-8|-7------12--|12+12+5-11-12-11|12-11-12-11-12-11|
B|-------5----|------------|----------------|-----------------|
G|------------|-----9-9---9|----------------|-----------------|
D|-----7------|------------|----------------|-----------------|
A|---7--------|---7--------|----------------|-----------------|
E|-5----------|-0----------|----------------|-----------------|
 
   
e|12-11-12-7-10-8|-5---------5|-7-----0-4-7|-8-----0-12-11|
B|---------------|---------5--|------------|--------------|
G|---------------|-------5----|------------|--------------|
D|---------------|-----7------|-----6------|-----7--------|
A|---------------|---7--------|---7--------|---7----------|
E|---------------|-5----------|-0----------|-5------------|
 
   
e|12-11-12-7-10-8|-5---------5|-7-------8-7|-5-------|
B|---------------|---------5--|------------|---------|
G|---------------|-------5----|-------7----|-5-------|
D|---------------|-----7------|-----6------|---------|
A|---------------|---7--------|---7--------|-0-------|
E|---------------|-5----------|-0----------|---------|
                 
                                 
***********************
|h  Hammer-on
|p  Pull-off
|+  Harmonic 
|*  Artificial harmonic 
***********************
Suggest correction
comments
print report bad tab
20 comments total. Showing first comments.
0 reply
farcry 70 wrote on November 19 2004, 12:00 am

the chords at the very end are impossible

+1 reply
jimisatchsrv 10 wrote on April 30 2005, 12:00 am

actually...they are very possible......and arent even difficult

+3 reply
jakewatson 10 wrote on November 5 2005, 10:00 am

they arent hard there bar chords u idiot

guest
You may want to rate the tab now too:
select rating
Wanna post a correction for this tab? Suggest correction