Oops, an error
Loading. Please wait.

Moonlight Sonata - 1St Movement Op 27 No 2 tab

version 3
48,356 views 9 this week
1 commentread comment
1 2 3 4 5
x 4
add to favorites
×
Save as Personal and add changes to this tab that will be seen only by you. Learn more ›
×
You can save this tab as Personal to edit and correct it or add notes. All changes will be seen only by you. Learn more »
launch autoscroll
font size
0
reset
how to read this tab
guitar tuner
edit
Autoscroll
slow
fast
+/-
esc
set tempo
stop
Author
Difficulty
Moonlight Sonata in its original key (for 7 string guitar)

Guitar I

            
     |-3-| |-3-| |-3-| |-3-|    |-3-| |-3-| |-3-| |-3-|  
     S S S S S S S S S S S S    S S S S S S S S S S S S  
E||------0-----0-----0-----0-|------0-----0-----0-----0-|
B||----2-----2-----2-----2---|----2-----2-----2-----2---|
G||--1-----1-----1-----1-----|--1-----1-----1-----1-----|
D||--------------------------|--------------------------|
A||--4-----------------------|--2-----------------------|
E||--------------------------|--------------------------|
B||--------------------------|--------------------------|


  |-3-| |-3-| |-3-| |-3-|    |-3-| |-3-| |-3-| |-3-|  
  S S S S S S S S S S S S    S S S S S S S S S S S S  
------0-----0-----2-----2-|------2-----0-------------|
----2-----2-----3-----3---|----------2-------4-----4-|
--2-----2-----2-----2-----|----5---1-------6-----5---|
--------------------------|--6-----------6-----4-----|
--0-----------------------|--------------------------|
--------------2-----------|--4-----------4-----------|
--------------------------|--------------------------|


  |-3-| |-3-| |-3-| |--3--|    |-3-| |-3-| |-3-| |--3--|  
  S S S S S S S S S S S T T    S S S S S S S S S S S T T  
------------0-----0-4---0-4-|--4---2-----2-----2-4---2-4-|
------2---2-----2-----------|----4-----4-----4-----4-----|
----1---1-----1-------6-----|--1-----1-----1-------------|
--2-----------------6-------|--------------------6-------|
--4-------------------------|--3-------------------------|
--4-------------------------|--4-------------------------|
----------------------------|----------------------------|


  |-3-| |-3-| |-3-| |-3-|    |-3-| |-3-| |-3-| |-3-|  
  S S S S S S S S S S S S    S S S S S S S S S S S S  
--4-----------5-----------|--4---0-----0-2-----7-----|
------5-----5-----7-----7-|----0-----0-----0-4---0-4-|
----6-----6-----6-----6---|--------1-----2-----------|
--6-----6-----7-----7-----|--6-----------------7-----|
--4-----------------------|--------------2-----------|
--------------------------|--7-----------------------|
--------------7-----------|--------------------------|


  |-3-| |-3-| |-3-| |-3-|    |-3-| |-3-| |-3-| |--3--|  
  S S S S S S S S S S S S    S S S S S S S S S S S T T  
--0---0-----0-----0-----0-|------0-----0-----0-3---0-3-|
----0-----0-----0-----0---|----0-----0-----0-----0-----|
--1-----1-----1-----1-----|--0-----0-----0-----0-------|
--2-----------------------|--2-------------------------|
--------------------------|----------------------------|
--0-----------------------|--0-------------------------|
--------------------------|----------------------------|


  |-3-| |-3-| |-3-| |--3--|    |-3-| |-3-| |-3-| |-3-|  
  S S S S S S S S S S S T T    S S S S S S S S S S S S  
--3---1-----1-----1-3---1-3-|--3---0-----0-----0-2---0-|
----3-----3-----3-----3-----|----1-----0-----2-----2---|
--0-----0-----0-----0-------|--0-----0-----0-----------|
--0-------------------------|--------------------4-----|
----------------------------|--3-----2-----1-----------|
----------------------------|--------------------------|
----------------------------|--------------------------|


  |-3-| |-3-| |-3-| |-3-|    |-3-| |-3-| |-3-| |-3-|  
  S S S S S S S S S S S S    S S S S S S S S S S S S  
--2-----------3-----0-----|--2-----------2-----------|
----0-3---0-3---0-3---0-3-|----0-3---0-3-----2-----2-|
--------------0-----------|----------------3-----3---|
--4-----4-----------2-----|--4-----4-----4-----4-----|
--2-----------------------|--------------------------|
--------------0-----3-----|--2-----------2-----------|
--------------------------|--------------------------|


  |-3-| |-3-| |-3-| |-3-|    |-3-| |-3-| |-3-| |-3-|  
  S S S S S S S S S S S S    S S S S S S S S S S S S  
------2-----2-----2-7---2-|--8-0-----0-3---0-3-6-0-3-|
--0-3---0-3---0-4---0-4---|--0---8-0-----0-----0-----|
--------------------------|--------------0-----------|
--------------------------|--------2-----------------|
--2-----------------------|--------------------7-----|
--------------------------|--7-----0-----3-----0-----|
--------------------------|--------------------------|


  |-3-| |-3-| |-3-| |-3-|    |-3-| |-3-| |-3-| |-3-|  
  S S S S S S S S S S S S    S S S S S S S S S S S S  
--7---------2-----2-7---2-|--8-0-----0-3---0-3-6-0-3-|
--0-4-7-0-4---0-4---0-4---|--0---8-0-----0-----0-----|
--------------------------|--------------0-----------|
--------------------------|--------------------------|
--------------------------|--------7-----------7-----|
--7-----------------------|--7-----------------------|
--------------------------|--------------------------|


  |-3-| |-3-| |-3-| |-3-|    |-3-| |-3-| |-3-| |-3-|  
  S S S S S S S S S S S S    S S S S S S S S S S S S  
--7---------2-7---1-----1-|--7---4-----4-5---2-----2-|
--0-4-7-0-4---0-3---0-3---|--0-------2-----2-----2---|
--------------------------|----6---4-----2-----2-----|
--------------------------|--------------------------|
--------------------------|--------------------------|
--7-----------4-----------|--------------2-----------|
--------------------------|--6-----------------------|


  |-3-| |-3-| |-3-| |-3-|    |-3-| |-3-| |-3-| |-3-|  
  S S S S S S S S S S S S    S S S S S S S S S S S S  
--3-----------2-----------|--------------------------|
----0-3---0-3-----4-----4-|--2-----------2-----2-----|
--0-----0-------2-----2---|------2-----2-----1-----1-|
--------------4-----4-----|----4-----4-----4-----3---|
--2-----------3-----------|--4-----4-----4-----4-----|
--------------------------|--------------------------|
--------------------------|--------------------------|


  |-3-| |-3-| |-3-| |--3--|    |-3-| |-3-| |-3-| |--3--|  
  S S S S S S S S S S S T T    S S S S S S S S S S S T T  
------------2---2-4-9-----9-|--9---7---4-7---4-7-9---7-9-|
------2---2---2-------7-9---|----9-----------------9-----|
----3---3-----------6-------|--6-----6-----6-----6-------|
--4-------------------------|----------------------------|
----------------------------|--8-------------------------|
--2-------------------------|--9-------------------------|
----------------------------|--6-------------------------|


  |-3-| |-3-| |-3-|  |--3--|     |-3-| |-3-| |-3-|  |-3-|  
  S S S S S S S S S  S  S  S     S S S S S S S S S  S S S  
--9---5-----5-8---5--9-------|--11-----------------11-----|
----7-----7-----7---------10-|-----7-9---7-9---7-9----7-9-|
--6-----6-----5--------11----|---8-----8-----8------8-----|
--------------------11-------|----------------------------|
--9-----------6--------------|----------------------------|
---------------------9-------|---8------------------8-----|
--7--------------------------|---8------------------8-----|


   |-3-| |-3-|  |-3-| |-3-|    |-3-| |-3-| |-3-| |-3-|  
   S S S S S S  S S S S S S    S S S S S S S S S S S S  
--12---9-----9-11---5-9---6-|--8-----4-----5-----2-----|
-----8-----8------7---------|------4-----4-----4---1-4-|
---9-----9------8-----6-8---|----5-----5-----5---------|
----------------------------|--------------------------|
----------------------------|--------------------------|
---9------------------------|--------------------------|
---8------------7-----7-----|--------------------------|


  3   |-3-| |-3-| |-3-| 3 3    |-3-| |-3-|  |-3-| |-3-|  
  X T S S S S S S S S S S S    S S S S S S  S S S S S S  
----------------------------|----0-4-9-0---12-0---9-0---|
------1-4---1-4---1-4-----4-|------------9------9-----9-|
----------1-----2-------5---|---------------------------|
----------------------4-----|--2------------------------|
----------------------------|---------------------------|
----------------------------|---------------------------|
----------------------------|---------------------------|


  3   |-3-| |-3-| |-3-| 3 3    |-3-| |-3-| |-3-| |-3-|  
  X T S S S S S S S S S S S    S S S S S S S S S S S S  
----------------------------|----------------2---5-2-8-|
----------------5-----------|------------4-1---4-------|
----------6-----------6-----|--------5-2---------------|
--------6-----6-----6-----6-|----7-4-------------------|
------7-----7-----7-----7---|--6-----------------------|
----------------------------|--------------------------|
----------------------------|--------------------------|


  |-3-| |-3-| |-3-|  |-3-|    |-3-| |-3-| |--3-|  |--3--|  
  S S S S S S S S S  S S S    S S S S S S S  S S  S  S  S  
------------4---9---12-9---|------0-6-3-9-6-12-9-15-12-18-|
--------5-----5---9------9-|----8-------------------------|
----6-----6----------------|--6---------------------------|
------6--------------------|------------------------------|
--7------------------------|------------------------------|
---------------------------|------------------------------|
---------------------------|------------------------------|


   |--3--|  |--3--|  |--3--|  |--3--|     |--3--|  |--3--|  |--3-| |-3-|  
   S  S  S  S  S  S  S  S  S  S  S  S     S  S  S  S  S  S  S  S S S S S  
-----------------14-11-17-14-20-17-23-|--20----17----14----11----8---5---|
-----------16-13----------------------|-----19----16----13----10---7---4-|
-----17-14----------------------------|----------------------------------|
--16----------------------------------|----------------------------------|
--------------------------------------|----------------------------------|
--------------------------------------|----------------------------------|
--------------------------------------|----------------------------------|


  |-3-| |-3-| |-3-| |-3-|    |-3-| |-3-| |-3-| |-3-|  
  S S S S S S S S S S S S    S S S S S S S S S S S S  
--2-----------------------|--------------------------|
----1-4---1---------------|--------------------------|
--------2-----2---------2-|------1-2-1-------2-----2-|
------------4---1-4---4---|----4-------4-1-4-----4---|
--------------------4-----|--3-----------------4-----|
--------------------------|--------------------------|
--------------------------|--------------------------|


  |-3-| |-3-| |-3-| |-3-|    |-3-| |-3-| |-3-| |-3-|  
  S S S S S S S S S S S S    S S S S S S S S S S S S  
--------------------------|--------------------------|
--------------------------|------------------2-----2-|
------1-2-1-------2-----2-|------1-2-1---------------|
----4-------4-0-4-----4---|----4-------4---2-----2---|
--3-----------------4-----|--3-----------4-----4-----|
--------------------------|--------------------------|
--------------------------|--------------------------|


  |-3-| |-3-| |-3-| |-3-|    |-3-| |-3-| |-3-| |--3--|  
  S S S S S S S S S S S S    S S S S S S S S S S S T T  
--------------------------|------------0-----0-4---0-4-|
------2-----2-----1-----1-|------2---2-----2-----------|
----2-----2-----1---------|----1---1-----1-------6-----|
--1-----1-----1-----1-4---|--2-----------------6-------|
--------------------------|----------------------------|
--------------------------|----------------------------|
--------------------------|----------------------------|


  |-3-| |-3-| |-3-| |--3--|    |-3-| |-3-| |-3-| |-3-|  
  S S S S S S S S S S S T T    S S S S S S S S S S S S  
--4---2-----2-----2-4---2-4-|--4-----------5-----------|
----4-----4-----4-----4-----|------5-----5-----7-----7-|
--------1-----1-------------|----6-----6-----6-----6---|
--6-----------------6-------|--6-----6-----7-----7-----|
----------------------------|--------------------------|
----------------------------|--------------------------|
----------------------------|--------------------------|


  |-3-| |-3-| |-3-| |-3-|    |-3-| |-3-| |-3-| |--3--|  
  S S S S S S S S S S S S    S S S S S S S S S S S T T  
--4---0-----0-2-----7-----|--0---0---0-4---0-4-7-0-4-7-|
----0-----0-----0-4---0-4-|----0---0-----0-----0-------|
--------1-----2-----------|--1-------------------------|
--6-----------------7-----|----------------------------|
--------------------------|----------------------------|
--------------------------|----------------------------|
--------------------------|----------------------------|


  |-3-| |-3-| |-3-| |--3--|    |-3-| |-3-| |-3-| |-3-|  
  S S S S S S S S S S S T T    S S S S S S S S S S S S  
--7---5---2-5---2-5-7---5-7-|--7-0-4---0-4-8---4-9-0-4-|
--0-7---0-----0-----0-7-----|--0-----0-------7---------|
----------------------------|--------------5-----6-----|
----------------------------|--------------------------|
----------------------------|--------------------------|
----------------------------|--------------------------|
----------------------------|--------------------------|


   |-3-| |-3-|  |-3-| |-3-|     |--3--|  |--3--|  |-3-|  |--3-|  
   S S S S S S  S S S S S S     S  S  S  S  S  S  S S S  S  S S  
--11-----------12---9-----9-|--10-----------------8-------------|
-----7-9---7-9----9-----9---|--------10-------10----7-9-------9-|
---8-----8------9-----9-----|-----11-------11--------------11---|
----------------------------|--12-------12-------10-----10------|
----------------------------|-----------------------------------|
----------------------------|-----------------------------------|
----------------------------|-----------------------------------|


   |-3-| |-3-| |-3-| |-3-|     |--3--|  |--3--|  |--3--|  |--3--|  
   S S S S S S S S S S S S     S  S  S  S  S  S  S  S  S  S  S  S  
---9---------4---1-4-9---4-|--10----------------------------------|
-------9---5---2-------6---|--------10-------10-------10-13----10-|
-----9---6-----------6-----|-----11-------11-------11-------11----|
--11-----------------------|--11-------11-------11-------11-------|
---------------------------|--------------------------------------|
---------------------------|--------------------------------------|
---------------------------|--------------------------------------|


   |--3-|  |--3-|  |--3-|  |--3-|     |--3--|  |--3--|  |--3--|  |--3--|  
   S  S S  S  S S  S  S S  S  S S     S  S  S  S  S  S  S  S  S  S  S  S  
---9-----------------------9------|--10----------------------------------|
--------9-------9-------9-------9-|--------10-------10-------10-13----10-|
-----10------10------10------10---|-----11-------11-------11-------11----|
--11------11------11------11------|--11-------11-------11-------11-------|
----------------------------------|--------------------------------------|
----------------------------------|--------------------------------------|
----------------------------------|--------------------------------------|


   |--3-|  |--3-|  |--3--|  |--3--|    |-3-| |-3-| |-3-| |-3-|  
   S  S S  S  S S  S  S  S  S  S  S    S S S S S S S S S S S S  
---9---------------9----------------|--7---5---2-5---2-5-7-0-4-|
--------9-------9-------10-------10-|--0-7---0-----0-----0-----|
-----10------10------11-------11----|--------------------------|
--11------11------11-------11-------|--------------------------|
------------------------------------|--------------------------|
------------------------------------|--------------------------|
------------------------------------|--------------------------|


  |-3-| |-3-| |-3-| |-3-|    |-3-| |-3-| |-3-| |-3-|  
  S S S S S S S S S S S S    S S S S S S S S S S S S  
--5-0-4-5---2-4---2-4---0-|--2-----------4-----5-----|
----------4-----4---------|----2-4---2-4-----4-----4-|
----------------------6---|----------------6-----6---|
--7-----7-----6-----6-----|--4-----4-----6-----7-----|
--------------------------|--------------------------|
--------------------------|--------------------------|
--------------------------|--------------------------|


  |-3-| |-3-| |-3-| |-3-|    |-3-| |-3-| |-3-| |--3--|  
  S S S S S S S S S S S S    S S S S S S S S S S S T T  
--4-----------4-----------|------------0-----0-----0---|
------5-----5-----4-----4-|--2---2---2-----2-----------|
----6-----6-----5-----5---|----1---1-----1-------6-----|
--6-----6-----4-----4-----|--2-----------------6-------|
--------------------------|----------------------------|
--------------------------|--4-----------------4-----4-|
--------------------------|----------------------------|


  |-3-| |-3-| |-3-| |--3--|    |-3-| |-3-| |--3-|  |---3--|  
  S S S S S S S S S S S T T    S S S S S S S  S S  S  S T T  
------2-----2-----2-----2---|----0---4-0-9---12-9-15-12-9---|
----4-----4-----4-----4-----|------2-------9----------------|
--------1-----1-------------|-------------------------------|
--6-----------------6-------|--6----------------------------|
----------------------------|-------------------------------|
--4-----------------4-----4-|--4----------------------------|
----------------------------|----------------------9------9-|


  |--3--| |-3-| |-3-| |--3--|    |-3-| |-3-| |--3-|  |---3--|  
  S  S  S S S S S S S S S T T    S S S S S S S  S S  S  S T T  
--8-14----8---5---2-----------|----0---4-0-9---12-9-16-12-9---|
-------10---7---4-----1-------|--2---2-------9----------------|
--------------------2-2-1-----|-------------------------------|
--------------------------4---|--2----------------------------|
------------------------------|-------------------------------|
----------------------4-----4-|--4----------------------------|
--9---------------------------|----------------------9------9-|


  |--3--| |-3-| |-3-| |--3--|    |-3-| |-3-| |-3-| |-3-|  
  S  S  S S S S S S S S S T T    S S S S S S S S S S S S  
--8-11----8---5---2-----------|--------0-----------------|
-------10---7---4-----1-------|--2---2---2---------2-----|
--------------------2-2-1-----|----1-------1-----1---1---|
--------------------------4---|--2-------------2-------2-|
------------------------------|--------------4-----------|
----------------------4-----4-|--4-----------------------|
--9---------------------------|--------------------------|


  3   |-3-| |-3-| |-3-| 3 3                            
  X T S S S S S S S S S S S    Q    Q       H          
----------------------------|------------|-----------||
----------------------------|-------2----|--2--------||
----------1-----------------|-------1----|--1--------||
--------2---2---------------|-------2----|--2--------||
------4-------4---4---------|-------4----|--4--------||
----------------4---4-0-4-0-|-------4----|--0--------||
----------------------------|------------|-----------||





Guitar II


New Track           
     H           H           H           H           H           H         
E||-----------|-----------|-----------|-----------|-----------|-----------|
B||-----------|-----------|-----------|-----------|-----------|-----------|
G||-----------|-----------|-----------|-----------|-----------|-----------|
D||-----------|-----------|-----------|-----------|-----------|-----------|
A||-----------|-----------|-----------|-----------|-----------|-----------|
E||-----------|-----------|-----------|-----------|-----------|-----------|
B||-----------|-----------|-----------|-----------|-----------|-----------|


  H           H           H           H           H           H         
-----------|-----------|-----------|-----------|-----------|-----------|
-----------|-----------|-----------|-----------|-----------|-----------|
-----------|-----------|-----------|-----------|-----------|-----------|
-----------|-----------|-----------|-----------|-----------|-----------|
-----------|-----------|-----------|-----------|-----------|-----------|
-----------|-----------|-----------|-----------|-----------|-----------|
-----------|-----------|-----------|-----------|-----------|-----------|


  H           H           H           H           H           H         
-----------|-----------|-----------|-----------|-----------|-----------|
-----------|-----------|-----------|-----------|-----------|-----------|
-----------|-----------|-----------|-----------|-----------|-----------|
-----------|-----------|-----------|-----------|-----------|-----------|
-----------|-----------|-----------|-----------|-----------|-----------|
-----------|-----------|-----------|-----------|-----------|-----------|
-----------|-----------|-----------|-----------|-----------|-----------|


  H           H           H           H           H           H         
-----------|-----------|-----------|-----------|-----------|-----------|
-----------|-----------|-----------|-----------|-----------|-----------|
-----------|-----------|-----------|-----------|-----------|-----------|
-----------|-----------|-----------|-----------|-----------|-----------|
-----------|-----------|-----------|-----------|-----------|-----------|
-----------|-----------|-----------|-----------|-----------|-----------|
-----------|-----------|-----------|-----------|-----------|-----------|


  H           H           H           H           H           H         
-----------|-----------|-----------|-----------|-----------|-----------|
-----------|-----------|-----------|-----------|-----------|-----------|
-----------|-----------|-----------|-----------|-----------|-----------|
-----------|-----------|-----------|-----------|-----------|-----------|
-----------|-----------|-----------|-----------|-----------|-----------|
-----------|-----------|-----------|--4--------|--4--------|--4--------|
-----------|-----------|-----------|-----------|-----------|-----------|


  H           H           H           H           H           H         
-----------|-----------|-----------|-----------|-----------|-----------|
-----------|-----------|-----------|-----------|-----------|-----------|
-----------|-----------|-----------|-----------|-----------|-----------|
-----------|-----------|-----------|-----------|-----------|-----------|
-----------|-----------|-----------|-----------|-----------|-----------|
--4--------|--4--------|--4--------|--4--------|--4--------|--4--------|
-----------|-----------|-----------|-----------|-----------|-----------|


  H           H           H           Q    Q       Q    Q       H         
-----------|-----------|-----------|------------|------------|-----------|
-----------|-----------|-----------|------------|------------|-----------|
-----------|-----------|-----------|------------|------------|-----------|
-----------|-----------|-----------|------------|------------|-----------|
-----------|-----------|-----------|-------0----|------------|--4--------|
--4--------|--4--------|--4--------|--4---------|--2----4----|--4--------|
-----------|-----------|-----------|------------|------------|-----------|


              Q    Q       Q    Q       H           H           Q    E  E   
-----------|------------|------------|-----------|-----------|-------------|
-----------|------------|------------|-----------|-----------|-------------|
-----------|------------|------------|-----------|-----------|-------------|
-----------|------------|------------|--2--------|--1--------|--2----1-----|
-----------|------------|------------|-----------|-----------|----------4--|
-----------|------------|------------|--0--------|-----------|--0----------|
-----------|------------|------------|-----------|-----------|-------------|


  Q    Q       Q    Q       H           E  E  E  E     H           E  E  E  E   
------------|------------|-----------|--------------|-----------|--------------|
------------|------------|-----------|--------------|-----------|--------------|
------------|------------|-----------|--------2-----|-----------|--------2-----|
------------|------------|-----------|-----4-----4--|-----------|-----4-----4--|
--3----4----|------------|--4--------|--4-----0-----|--4--------|--4-----0-----|
--4----4----|--2----4----|-----------|-----2-----2--|-----------|-----2-----2--|
------------|------------|-----------|--------------|-----------|--------------|


  Q    Q       Q.     E     E  E  E  E     Q    E  E     Q    Q                 
------------|------------|--------------|-------------|------------|-----------|
------------|------------|--------------|-------------|------------|-----------|
------------|------------|--------------|-------------|------------|-----------|
------------|--1------2--|--------------|-------------|------------|-----------|
--4---------|------------|--------------|--0----------|------------|-----------|
-------2----|---------0--|--------------|-------4--2--|--4----4----|-----------|
------------|------------|--------------|-------------|------------|-----------|


-----------|-----------|-----------|-----------|-----------|-----------|
-----------|-----------|-----------|-----------|-----------|-----------|
-----------|-----------|-----------|-----------|-----------|-----------|
-----------|-----------|-----------|-----------|-----------|-----------|
-----------|-----------|-----------|-----------|-----------|-----------|
-----------|-----------|-----------|-----------|-----------|-----------|
-----------|-----------|-----------|-----------|-----------|-----------|


  Q    Q                              
------------|-----------|-----------||
------------|-----------|-----------||
------------|-----------|-----------||
------------|-----------|-----------||
------------|-----------|-----------||
--4---------|-----------|-----------||
------------|-----------|-----------||




Duration Legend
---------------
W - whole
H - half
Q - quarter
E - 8th
S - 16th
T - 32nd
X - 64th
. - note dotted
|-n-|  - n-tuplets


Tablature Legend
----------------
L - tied note
x - dead note
g - grace note
(n) - ghost note
> - accentuded note
NH - natural harmonic
AH - artificial harmonic
TH - tapped harmonic
SH - semi harmonic
PH - pitch harmonic
h - hammer on
p - pull off
b - bend
br - bendRelease
pb - preBend
pbr - preBendRelease
brb - bendReleaseBend
\n/ - tremolo bar dip
\n - tremolo bar dive
-/n - tremolo bar Release up
/n\ - tremolo bar inverted dip
/n - tremolo bar return
-\n - tremolo bar Release down
S - shift slide
s - legato slide
/ -  slide into from below or out of upwards
\ -  slide into from above or out of downwards
~ - vibrato
W - wide vibrato
tr - trill
TP - tremolo picking
T - tapping
S - slap
P - pop
< - fade in
^ - brush up
v - brush down
Suggest correction
Creating personal tab
Creating personal tab
You can edit any tab online and save it as your Personal.

You can edit, replace or remove any tab part or add personal notes – all changes will be seen only by you.

Personal tabs can be accessed anytime from any device, even offline.
Learn more »
comments
print report bad tab
1 comment total.
0 reply
thefoldarsoldar 86 Feb 18, 2008 02:55 PM

Fingerings could be better - you can stay in 4th position in the 3rd bar, and I'm still stumped on the 5th bar - but it sounds good.

guest
You may want to rate the tab now too:
select rating
Wanna post a correction for this tab? Suggest correction