Oops, an error
Loading. Please wait.

Ode To Joy tab

version 1
164,337 views 471 this week
11 commentsread comments
1 2 3 4 5
x 53
add to favorites
×
Save as Personal and add changes to this tab that will be seen only by you. Learn more ›
×
You can save this tab as Personal to edit and correct it or add notes. All changes will be seen only by you. Learn more »
launch autoscroll
font size
0
reset
how to read this tab
guitar tuner
edit
Autoscroll
slow
fast
+/-
esc
set tempo
stop
Author
Unregistered
E|-----------------------------------------|
B|0-0-1-3-3-1-0---------0-0----------------|
G|--------------2-0-0-2-----2-2------------|
D|-----------------------------------------|
A|-----------------------------------------|
E|-----------------------------------------|

E|-----------------------------------------|
B|0-0-1-3-3-1-0---------0------------------|
G|--------------2-0-0-2---2-0-0------------|
D|-----------------------------------------|
A|-----------------------------------------|
E|-----------------------------------------|

E|-----------------------------------------|
B|----0-----0-1-0------0-1-0------0--------|
G|2-2---0-2------2-0-2-------2-0-2--2-2----|
D|-----------------------------------------|
A|-----------------------------------------|
E|-----------------------------------------|

E|-----------------------------------------|
B|0-0-1-3-3-1-0---------0------------------|
G|--------------2-0-0-2---2-0-0------------|
D|-----------------------------------------|
A|-----------------------------------------|
E|-----------------------------------------|

(OPTIONAL ENDING)
-played slowly-
E|-----------------------------------------|
B|------0----------------------------------|
G|2-0-2---0--------------------------------|
D|-----------------------------------------|
A|-----------------------------------------|
E|-----------------------------------------|

            
            
Suggest correction
Creating personal tab
Creating personal tab
You can edit any tab online and save it as your Personal.

You can edit, replace or remove any tab part or add personal notes – all changes will be seen only by you.

Personal tabs can be accessed anytime from any device, even offline.
Learn more »
comments
print report bad tab
11 comments total. Showing first comments.
+2 reply
Erikbouchard 10 Apr 05, 2002 07:00 PM

rule

+2 reply
halflife1198 0 Nov 29, 2002 07:00 PM

Everything is great but i have the book and it told me to start on the E string instead of the B string

+2 reply
Philosopher1989 20 Mar 17, 2005 07:00 PM

the notes start as E - E - F - G , etc instead of on C. maybe start it on the E string n it'll be fine :S

guest
Wanna post a correction for this tab? Suggest correction