Oops, an error
Loading. Please wait.

Rancho Alegre Tab

76 views 1 this week
no commentswrite comment
1 2 3 4 5
3 more votes to show rating
add to favorites
launch autoscroll
font size
0
reset
how to read this tab
guitar tuner
Autoscroll
slow
fast
+/-
esc
set tempo
stop
Help us to improve Ultimate-Guitar.com Take our survey!
×
ESTA ES LA PRIMERA TRANSCRIPCIÓN QUE HAGO, ESPERO LA ENCUENTREN BIEN.

E------------------------------------
B------------------------------1-----
G------2-----2-------------0-----3-2-
D--------3-----3-2-0---------2-------
A--3-3-----------------3-3-----------
E------------------------------------
  Soy del mero Rancho Alegre, un ranchero de verdad

E------------------------------------
B----------------1-----------1-------
G------0-----------3---3-3-2---0-2---
D--3-3---3---2-3-------------------3-
A------------------------------------
E------------------------------------
  que trabaja de labriego, mayordomo y caporal.

E------------------------------------
B------------------------------1-----
G------2-----2-------------0-----3-2-
D--------3-----3-2-0---------2-------
A--3-3-----------------3-3-----------
E------------------------------------
  Mi querencia es este rancho, donde vivo tan felíz

E------------------------------------
B----------------1-----------1-------
G------0-----------3---3-3-2---0-2---
D--3-3---3---2-3-------------------3-
A------------------------------------
E------------------------------------
  escondido entre montañas de color azul añil.

E----------------------------------------------------
B----------------3-3-1---1-----1-1-1-1-----1-1-------
G----------3-----------2---------------0-0-----3-3-2-
D--3-3-0-3-------------------------------------------
A----------------------------------------------------
E----------------------------------------------------
  Rancho Alegre mi nidito, mi nidito perfumado de jazmín

E---------------------------------------------------
B----------------3-3-1---1-----1-1-1-1----1---------
G----------3-----------2---------------3-3--3-2-0---
D--3-3-0-3----------------------------------------3-
A---------------------------------------------------
E---------------------------------------------------
  donde guardo mi amorcito que tiene ojos de lucero y capulín

Después se repite todo pero con esta letra:

 En mi rancho tengo todo
 animales, agua y sol,
 y una tierra prieta y buena
 que trabajo con ardor.

 Cuando acabo mis labores
 ya que se ha metido el sol
 a la luz de las estrellas
 canto alegre mi canción.

 Solo falta allí una cosa
 que muy pronto yo tendré
 como estoy recién casado
 adivínen lo que es.

 Ha de ser un chilpayate
 grande y fuerte a no dudar
 que también será labriego
 mayordomo y caporal.

Bueno pues aquí está, haber que les parece.
Cualquier sugerencia haganmelo saber.
Suggest correction
Give kudos to tab author, rate the tab!
1 2 3 4 5
comments
print report bad tab
guest
You may want to rate the tab now too:
select rating
Wanna post a correction for this tab? Suggest correction