Oops, an error
Loading. Please wait.

Ven A Mi Casa Esta Navidad Tab

293 views 1 this week
no commentswrite comment
1 2 3 4 5
3 more votes to show rating
add to favorites
×
Save as Personal and add changes to this tab that will be seen only by you. Learn more ›
×
You can save this tab as Personal to edit and correct it or add notes. All changes will be seen only by you. Learn more »
save as personal
new!
launch autoscroll
font size
0
reset
how to read this tab
guitar tuner
Autoscroll
slow
fast
+/-
esc
set tempo
stop
._.

intro:
e-------------------. .--3--3----2--3----2--  -3--3------------3s5-
B-------------------. .---------------------  ---------------------
G------------0-2-0--. .---------------------  ---------------------
D-------------------. .---------------------  ---------------------
A-------------------. .---------------------  ---------------------
E-------------------. .---------------------  ---------------------

-3---------1--1--0--   -1-------------------  --1--1----0--1----0--
--------------------   ---------------------  ---------------------
--------------------   ---------------------  ---------------------
--------------------   ---------------------  ---------------------
--------------------   ---------------------  ---------------------
--------------------   ---------------------  ---------------------

-1--1---------0-1-3-   -1----------0--0-----  -0-------------------. .
--------------------   -------------------4-  ---------------------. .
--------------------   ---------------------  --------------0-2-0--. .
--------------------   ---------------------  ---------------------. .
--------------------   ---------------------  ---------------------. .
--------------------   ---------------------  ---------------------. .

.-0--0--------------   -------0--1--3--  -5--------------  --------
.---------3--3------   -2-----2--3--5--  -6---------0-0--  --1-----
.-------------------   ----------------  ------2-2-------  --------
.-------------------   ----------------  ----------------  --------
.-------------------   ----------------  ----------------  --------
.-------------------   ----------------  ----------------  --------

1era estrofa:

--3--3----2--3----2--  -3--3------------3s5-  -3---------1--1--0--
---------------------  ---------------------  --------------------
---------------------  ---------------------  --------------------
---------------------  ---------------------  --------------------
---------------------  ---------------------  --------------------
---------------------  ---------------------  --------------------

-1-------------------  --1--1----0--1----0--  -1--1---------0-1-3-
---------------------  ---------------------  --------------------
---------------------  ---------------------  --------------------
---------------------  ---------------------  --------------------
---------------------  ---------------------  --------------------
---------------------  ---------------------  --------------------

-1----------0--0-----  -0-------------------
-------------------4-  ---------------------
---------------------  -------------0-2-0---
---------------------  ---------------------
---------------------  ---------------------
---------------------  ---------------------

2nda estrofa:

--3--3----2--3----2--  -3--3------------3s5-  -3---------1--1--0--
---------------------  ---------------------  --------------------
---------------------  ---------------------  --------------------
---------------------  ---------------------  --------------------
---------------------  ---------------------  --------------------
---------------------  ---------------------  --------------------

-1-------------------  --1--1----0--1----0--  -1--1---------0-1-3-
---------------------  ---------------------  --------------------
---------------------  ---------------------  --------------------
---------------------  ---------------------  --------------------
---------------------  ---------------------  --------------------
---------------------  ---------------------  --------------------

-1----------0--0-----  -0-------------------
-------------------4-  ---------------------
---------------------  ---------------------
---------------------  ---------------------
---------------------  ---------------------
---------------------  ---------------------

coro:
e----------------. .
B----------------. .
G---------0-2-0--. .
D----------------. .
A----------------. .
E----------------. .

.-0--0-------------  -------0--1--3--  -5--------------  -------
.--------3--3------  -2-----2--3--5--  -6---------0-0--  --1----
.------------------  ----------------  ------2-2-------  -------
.------------------  ----------------  ----------------  -------
.------------------  ----------------  ----------------  -------
.------------------  ----------------  ----------------  ------- X2

3era estrofa:

---------------------  --3--3----2--3----2--  -3--3-----------3s5-
---------------------  ---------------------  --------------------
---------0-2-0-------  ---------------------  --------------------
---------------------  ---------------------  --------------------
---------------------  ---------------------  --------------------
---------------------  ---------------------  --------------------

-3---------1--1--0---  -1-------------------  --1--1----0--1----0-
---------------------  ---------------------  --------------------
---------------------  ---------------------  --------------------
---------------------  ---------------------  --------------------
---------------------  ---------------------  --------------------
---------------------  ---------------------  --------------------

-1--1---------0-1-3--  -1----------0--0-----  -0------------------
---------------------  ------------------4--  --------------------
---------------------  ---------------------  -------------0-2-0--
---------------------  ---------------------  --------------------
---------------------  ---------------------  --------------------
---------------------  ---------------------  --------------------
4ta estrofa:

--3--3----2--3----2--  -3--3------------3s5-  -3---------1--1--0--
---------------------  ---------------------  --------------------
---------------------  ---------------------  --------------------
---------------------  ---------------------  --------------------
---------------------  ---------------------  --------------------
---------------------  ---------------------  --------------------

-1-------------------  --1--1----0--1----0--  -1--1---------0-1-3-
---------------------  ---------------------  --------------------
---------------------  ---------------------  --------------------
---------------------  ---------------------  --------------------
---------------------  ---------------------  --------------------
---------------------  ---------------------  --------------------

-1----------0--0-----  -0-------------------
-------------------4-  ---------------------
---------------------  ---------------------
---------------------  ---------------------
---------------------  ---------------------
---------------------  ---------------------
coro: X2

RECITADO: Las siguiates dos estrofas son recitadas pero si quieres
cantarlas es tu decicion lo puedes hacer como las estrofas
anteriores

FINAL: CORO X 4

____________________________________________________________________
PARA ALGUNOS QUE AUN NO ENTIENDEN  "s": slide o deslizar
LA CANCION VA EN CUANTRO CUARTOS

LINDA CANCION PARA DEDICAR EN NAVIDAD
BUENO Y ESTA SERIA LA CANCION VEN A MI CASA ESTA NAVIDAD AQUI TODA
LA CANCION PUNTEADA PERO ES SU DECICION SI TOCARLA ASI
(QUE YO CREO QUE QUEDARIA MEJOR) O TOCARLA EN ACORDES
(O TOCARLA ENTRE DOS PERSONAS UNO EN ACORDES Y OTRO EN PUNTEO)

NO SE LIMITEN ESTO TOQUENLA COMO MAS LES PLASCA XD...NJCHN
Suggest correction
Give kudos to tab author, rate the tab!
1 2 3 4 5
comments
print report bad tab
guest
Wanna post a correction for this tab? Suggest correction