Oops, an error
Loading. Please wait.

Castillo De Piedra Bass Tab

58 views 3 this week
no commentswrite comment
1 2 3 4 5
3 more votes to show rating
add to favorites
launch autoscroll
font size
0
reset
guitar tuner
×
Best way to learn
"Castillo De Piedra"
Autoscroll
slow
fast
+/-
esc
set tempo
stop
G|-----------------------------------------------
D|-----------------------------------------------
A|-8--8--8--8--8--8--8--8--8--8--8--8--8--8--8--8
E|-----------------------------------------------

                     (4 veces)                     (4 veces)
      (7 veces)          ?a ver con? (3 veces)         ?mucho tiempo?
G|---|----------|------------------|----------|------------------|
D|---|----------|------------------|----------|------------------|
A|---|-3-4------|-3-4--------------|-3-4------|-3-4--------------|
E|-6-|------4-6-|------4-6---------|------4-6-|------4-6---------|


  (4 veces)                    (3 veces)
G|----------|--------|----------------------------|
D|----------|--------|---3---3---3---3---3-------3|
A|-3-4------|-3-4----|-3---3---3---3---3----4-3---|
E|------4-6-|------4-|----------------------------|

                                                          (19 veces)
G|---------------------------------------------------|---|----------|
D|---3---3---3---3---3-------------------------------|---|-5-6------|
A|-3---3---3---3---3----4-3--1-----------------------|-8-|------6-8-|
E|-----------------------------4--3-1----------------|---|----------|

                      (4 veces)
       (7 veces)   ?en un castillo? (8 veces)
G|---|----------|------------------|----------|------------------
D|---|----------|------------------|----------|------------------
A|---|-3-4------|-3-4--------------|-3-4------|-3-4--------------
E|-6-|------4-6-|------4-6---------|------4-6-|------4-6---------

                                            (3 veces)          ?aunque yo?
G|-------------------------------------|---|----------|-------------------
D|-------------------------------------|---|----------|-------------------
A|-3-------4-------6--6-6-6-6-6-6-6-6-6|-6-|-3-4------|-3-4---------------
E|-------------------------------------|---|------4-6-|------4--6---------

?nena?       ?uhhhh yeee?
G|---------------------------------------------------------------
D|---------------------------------------------------------------
A|-3-------4-------6---------------------------------------------
E|----------------------------------------------6----------------

Castillo de piedra (Pappo/Luis Alberto Spinetta)

A ver con cuál nos quedamos
tenemos que decidir
aunque esté desesperado
hay tiempo para elegir.

Oh no! Oh yeah! Oh no! Oh yeah!

Mucho tiempo ha pasado
desde que estamos aquí
muchas aman a mi lado
esto no es para mi!

Oh no! Oh yeah! Oh no! Oh yeah!

En un castillo de piedra
miro las aves pasar
no creas que soy muy listo
pero yo aqui he de quedar.

Oh no! Oh yeah! Oh no! Oh yeah!

Castillo de piedra Nena!!!

Uhhh!! Yeahh!
Suggest correction
Give kudos to tab author, rate the tab!
1 2 3 4 5
comments
print report bad tab
guest
You may want to rate the tab now too:
select rating
Wanna post a correction for this tab? Suggest correction