Oops, an error
Loading. Please wait.

Despierta En La Brisa Tab

35 views 1 this week
no commentswrite comment
1 2 3 4 5
3 more votes to show rating
add to favorites
launch autoscroll
font size
0
reset
how to read this tab
guitar tuner
Autoscroll
slow
fast
+/-
esc
set tempo
stop
Help us to improve Ultimate-Guitar.com Take our survey!
×
La afinacion es Drop D , asi que la sexta
en re y como sigue abajo, espero que les sirva,
suena bastante parecida en algunas partes en otras igual ,
cualquier correccion sin miedo que para aprender estamos! , saludos

Intro

e------------------------------------
B------------------------------------
G------------------------------------
D---0-2-2-0-0-0-------0-2-2-0-0-0----
A--0---------2-------0---------2-----
D-0------------3-0--0-------------0s3p0


e-------------------
B---------------0---
G--------------0-2h-  x2
D---0-2-2-0---4-----
A--0----------------
D-0-----------------


e----------------0-----
B---------------3-3-2--
G--------------0-------
D---0-2-2-0---4-------- x2
A--0-------------------
D-0--------------------

------------------0------------------------5--6--7-
-----------------3-------------------------5--6--7-
----------------0---4p2p0h2----------------4--5--6-
----0-2-2-0----4---------------0-2---------5--6--7-
---0--------------------------0--------------------
--0------------------------------------------------


Asus2/G         Edim        Gm6     Asus2/G    Esus4/G

Oye amiga quiero festejar el fin del sueño cerca de la luz

F7M/C                          G/F               A/G
Y tal vez me abrigue del suelo tibio hasta el amanecer

Asus2/G         Edim         Gm6  Asus2/G        Esus4/G
Oye niño te encantan mis pasos, mi atención, mis días
F7M/C                           G/F
Y así es tu cielo abierto azul
A/G
Más allá de los tristes túneles


Dm9         Gm/F                        A/G
Y despierta en la brisa un instante de verdad
Dm9         Gm/F                        A/G
Y eleva, y eleva tu consciencia de volar
Dm9         Gm/F                        A/G
Sobre las ruinas, las ruinas de una misión descomunal
Dm9         Gm/F                        A/G
Y despierta en la brisa un instante de verdad
D/C                 C/A#
Y aquellas almas te oirán?


Repite Intro

Mis sentidos ya no dan abasto en el resplandor
Así me abrigue en el suelo tibio, para sentir la música

Y te pregunto: ?¿como dormirán los enemigos de la humanidad??
Quizás ella arroje su propio fuego, como a hundir el papel.

Y despierta en la brisa un instante de verdad
Y eleva, y eleva tu consciencia de volar
Sobre las ruinas, las ruinas de una misión descomunal
Y despierta en la brisa un instante de verdad
Y aquellas almas te oirán?


Acordes


Asus2/G         Edim    Gm6    Esus4/G

e----7-       ---9------10--------5-----
B----7-       ---8-------8--------5-----
G----6-       ---9-------9--------4-----
D----7-       ---8-------8--------5-----
A------       --------------------------
D----0-       --------------------0-----


F7M/C          G/F    A/G     Gm/F      D/C     C/A#     Dm9

e----0      ----3------5--------3--------10-------8-------0----
B----1      ----3------5--------3--------10-------8-------5----
G----2      ----4------6--------3--------11-------9-------5----
D----3      ----5------7--------5--------12------10-------3----
A----3-     ----5------7--------5--------12------10-------5----
D------     ----3------5--------3--------10-------8-------0----
Suggest correction
Give kudos to tab author, rate the tab!
1 2 3 4 5
comments
print report bad tab
guest
You may want to rate the tab now too:
select rating
Wanna post a correction for this tab? Suggest correction