Oops, an error
Loading. Please wait.

El Enemigo Chords

version 1
version 1

Whole song

74 views 1 this week
no commentswrite comment
1 2 3 4 5
3 more votes to show rating
add to favorites
launch autoscroll
font size
0
reset
transpose
0
reset
simplify chords
display chords
guitar tuner
×
Best way to learn
"El Enemigo"
Autoscroll
slow
fast
+/-
esc
set tempo
stop
Intro:

Am7/9 - Dm7/9 - C#7
Am7/9 - Dm7/9 - Bb7/9/#11

estrofa:

Cmaj7
Con una sola vez
              Am7/9                 G5    Fmaj7/13
en la que el viento diga tu nombre
Riff 1                                Cmaj7
mi corazón latirá muy fuerte hasta llegar.

Mientras se detenga el tiempo
entre cuerpos como arena en las manos,
la lejanía dirá adiós hasta estallar.

G#maj7/b5  G#maj7
Vuel    -     ve
   Gm7           Fmaj7          Cmaj7
y siembra en su vientre una plegaria
G#maj7/b5  G#maj7
 Su    -     be
   Gm7       Fmaj7         Em7
y vuela tu mirada hacia el mar
          Am7/9          Dm7/9
y es que nada, nada detendrá mi amor
 G5                                          Fmaj7/13
ya hay que impedir que juegues para el enemigo.

Inter: Riff 2 seguido por acordes de intro

Puedo hasta tocar el cielo
en el que flotan todas almas perdidas,
mi corazón latirá muy fuerte hasta llegar.

Si un espejo falso ves
que no responda tus mismas lágrimas,
la lejanía dirá adiós hasta estallar.

Oh regresa
y hunde tu cuerpo en esta piedra,
sube y vuela tu mirada hacia el mar,
y es que no hay otra oportunidad,
¿porqué solo es esto todo lo que tenias para dar?

Solo: acordes de estrofa

Ya hay que impedir que juegues para el enemigo.

Madre de la vida
por favor ilumina a la gente
o todo verdor y creación y tu amor se perderán.

Quieren imitar al sol
que se escapa en su espectro dorado,
y la lejanía dice adiós hasta estallar.

Vuelve
y siembra en su vientre una plegaria
sube y vuela tu mirada hacia el mar
y es que nada nada detendrá mi amor,
ya hay que impedir que juegues para el enemigo.

final: Riff 2

-------------------------------------------------------

Riff 1

       E -------------------------0---/
       B -5-5-5--3-1-0------------0---/
       G --------------2-0-2------0---/
       D --------------------0-2--2---/
       A -------------------------3---/
       E -----------------------------/

Riff 2

       E --------------------------0---/
       B -5--3-1-0-----------------0---/
       G ----------2-0---2-0-------0---/
       D --------------------2-0---2---/
       A --------------------------3---/
       E ------------------------------/

--------------------------------------------------------

Dedicada a Nachín, ahora sacala, eh?
Suggest correction
Give kudos to tab author, rate the tab!
1 2 3 4 5
comments
print report bad tab
guest
You may want to rate the tab now too:
select rating
Wanna post a correction for this tab? Suggest correction