Oops, an error
Loading. Please wait.
68 views 1 this week
no commentswrite comment
1 2 3 4 5
3 more votes to show rating
add to favorites
launch autoscroll
font size
0
reset
how to read this tab
guitar tuner
×
Best way to learn
"El Enemigo"
Autoscroll
slow
fast
+/-
esc
set tempo
stop
Como la Intro yo no la toco, y por lo tanto no la saqué, dejo la que
Matías puso en su transcripción.

Am7/9 Dm7/9  C#7/9   D7/9  D#7/9  Am7/9 Dm7/9 C#7/9 
                     estos tres acordes
                     hay que escucharlos
                     bien porque es un
                     arreglo pasan rápido
-------------------------------------------------------------------
Arpegios
1----------0----------------0----------------0----------------0---
2--------0---0------------0---0------------0---0------------0---0-
3------0-------0--------0----------------5-------5--------5-------
4----2-----------2----2----------------5-----------5----5---------
5--3----------------3-----------3-2--0----------------0-----------
6-----------------------------------------------------------------

-------------0------------------------------------0--
-----------3---3--------3-1-0----3----------------0--
---------2-------2------2-----2--0-0h2p0----------0--
-------3-----------3----3--------2-------2--0--2--2--
--5------------------------------3----------3-----3--
--3--1----------------1---------------------3-----3--

Acordes:

Csus2/G#  4X5533
G#Maj7    4X5544
Gm7       353333
FMaj7     133210
CMaj7/C   332000
Fm7       131144
Em7       022033
Am7       X02010
FMAj7/A   X03210
G6        355000
F6/9      XX3233

(Con Arpegios)
Con una sola vez
En la que el viento diga tu nombre
Mi corazón, latirá muy fuerte
Hasta llegar.

Mientras se detenga el tiempo
Entre cuerpos como arena en las manos
La lejanía dirá adiós
Hasta estallar.

Csus2/G#    G#maj7
Vue-------lve
    Gm7          Fmaj7            Cmaj7/G
Y siembra en su vientre una plegaria
Csus2/G# G#maj7  Gm7        Fm7         Em7
Su-------be, y vuela tu mirada hacia el mar
          Am7          FMaj7/A
Y es que nada, nada detendrá mi amor
   G6                                    F6/9
Y hay que impedir que juegues para el enemigo.

-0----------------------------0--
-5--3-1-0----3----------------0--
----------2--0-0h2p0----------0--
-------------2-------2--0--2--2--
-------------3----------3-----3--
------------------------3-----3--

Puedo hasta tocar el cielo
En el que flotan todas almas perdidas
Mi corazón latirá muy fuerte
Hasta llegar.
Si un espejo falso ves
Que no responda tus mismas lágrimas
La lejanía dirá adiós hasta estallar.

OH regresa
Y hunde tu cuerpo en esta piedra
Sube y vuela tu mirada hacia el mar
Y es que no hay otra oportunidad
Porqué solo es esto todo lo, que tenias para dar.

Y hay que impedir que juegues para el enemigo.

Madre de la vida
Por favor ilumina a la gente
O todo verdor y creación, y tu amor se perderán.

Quieren imitar al sol
Que se escapa en su espectro dorado
Y la lejanía dice adiós hasta estallar.

Vuelve
Y siembra en su vientre una plegaria
Sube, y vuela tu mirada hacia el mar
Y es que nada, nada detendrá mi amor
Y hay que impedir que juegues para el enemigo.
Suggest correction
Give kudos to tab author, rate the tab!
1 2 3 4 5
comments
print report bad tab
guest
You may want to rate the tab now too:
select rating
Wanna post a correction for this tab? Suggest correction