Oops, an error
Loading. Please wait.

El Lenguaje Del Cielo Tab

29 views 1 this week
no commentswrite comment
1 2 3 4 5
3 more votes to show rating
add to favorites
launch autoscroll
font size
0
reset
how to read this tab
guitar tuner
Autoscroll
slow
fast
+/-
esc
set tempo
stop
Help us to improve Ultimate-Guitar.com Take our survey!
×
e----------------------------------
b----------------5-7-----5--5---3--
g-------4--6--7-------4--6------4--  riff
d----7-------------------6---7--5--
a-7--------------------------------
E----------------------------------
 Las horas caen llevándose esta vez,
G#m7/11       C#7/#9-C#7/b9 F#m7
todo lo que el viento me habló,
riff
eterno el día sin esperar, ya volvió
  G#m7/11  C#7/#9-C#7/b9   F#m7
con tu cielo que se abre en dos.

d-6-7--9-
a--------
E-4-5--7-
          Amaj7
  Niño precioso,
         Dmaj7/9  Amaj7
que no entiende nada ya,
          Dmaj7
cuando apareces,
        Bm7        Dmaj7
tu energía es tan diáfana...
  Bm7      D7/9                C#m7/#9   F#m7/4
escóndeme antes de que mire el mundo...

riff
La soledad no habrá de cambiar, mi querer
G#m7/11       C#7/#9-C#7/b9  F#m7
Ni en la ambición su mundo lo hará,

e--------------------------------------
b----------------5--7------5---5----3--
g-------4--6--7--------4---6--------4--  riff1
d----7---------------------6----7---4--
a-7------------------------------------
E--------------------------------------
 Yo se que acaso podrás sentir ese ardor
G#m7/11 C#7/#9-C#7/b9 F#m7
Otra vez el mismo amor

d-6-7--9-
a--------
E-4-5--7-
          Amaj7
  Niño precioso,
         Dmaj7/9  Amaj7
que no entiende nada ya,
          Dmaj7
cuando apareces,
        Bm7        Dmaj7
tu energía es tan diáfana...
  Bm7      D7/9                C#m7/#9   F#m7/4
escóndeme antes de que mire el mundo...

e---------------------------------5--4-----------------------
b------------------------5--7--5---------5------5------------
g--------------4--6---7--------------------- 6------7----7--- riff2
d----7-----7--------------------------------------------7----
a-7----7-----------------------------------------------------
E------------------------------------------------------7-----
                                                                 G6
 Yo sé, yo sé que acaso entiendes el lenguaje del cielo...
      Bbm7/A              G#m7
"Y te recompensará con su sal el mar....
      Bbm7/A              G#m7
y solo eso será, solo eso será...
        Bbm7/A
y de tu boca saldrá,
    G#m7
la oveja del agua...
      Bbm7/A
y solo eso será,
     G#m7
solo eso será...
           Bbm7/A
y es que al fin,
     Ebm7/4      G9  A/C#
así libre serás ah !!! "

e----------------------------5--4------------------
b-------------------5--7--5--------5-----5-5-------
g--------4--6--7----------------------6------7--7--  riff3
d----7------------------------------------------7--
a-7------------------------------------------------
E-----------------------------------------------7--
 Yo sé, que acaso entiendes el lenguaje del cielo...

riff
Las horas caen, llevándose esta vez,
G#m7/11    C#7/#9-C#7/b9  F#m7
todo lo que el viento me habló...
Riff1
la soledad no habrá de cambiar, mi querer
G#m7/11 C#7/#9-C#7/b9 F#m7
esta vez oh !


d-6-7--9-
a--------
E-4-5--7-
          Amaj7
  Niño precioso,
         Dmaj7/9  Amaj7
que no entiende nada ya,
g-6-7--9-
d-6-7--9-
a--------
E-5-7--9-
          Dmaj7
cuando apareces,
        Bm7        Dmaj7
tu energía es tan diáfana...
  Bm7      D7/9                C#m7/#9   F#m7/4
escóndeme antes de que mire el mundo...

e----------------------------5--4-------------------0---
b-------------------5--7--5--------5-----5---------3--3-
g--------4--6--7----------------------6-----7-----0----- riff4
d----7-------------------------------------------4------
a-7---------------------------------------------2-------
E-------------------------------------------------------
 Yo sé, que acaso entiendes el lenguaje del cielo...


Acordes:

G#m7/11: 4x442x
C#7/#9: x4345x
C#7/b9: x4343x
F#m7: 2x22xx
Amaj7: 5x665x
DMaj7/9: x5465x
Dmaj7: x5422x
Bm7: x24232
D7/9: x5455x
C#m7/#9: x4245x
F#m7/4: x99910x
G6: 3x243x
Bbm7/A: x0112x
G#m7: 464444 o x1113111211
Ebm7/4: x6667x
G9: 3x023x
A/C#: x4222x
Suggest correction
Give kudos to tab author, rate the tab!
1 2 3 4 5
comments
print report bad tab
guest
You may want to rate the tab now too:
select rating
Wanna post a correction for this tab? Suggest correction