Oops, an error
Loading. Please wait.

El Mar Es De Llanto Chords

version 1
version 1

Whole song

32 views 1 this week
no commentswrite comment
1 2 3 4 5
3 more votes to show rating
add to favorites
launch autoscroll
font size
0
reset
transpose
0
reset
simplify chords
display chords
guitar tuner
×
Best way to learn
"El Mar Es De Llanto"
Autoscroll
slow
fast
+/-
esc
set tempo
stop
El fraseo del tema es:(1)

E------1-----3s5-3--      s=Slide
B-----1-1----3s5-3-0
G----2---2----------
D---0-----0---------
A-------------------
E-------------------

Esta basado en el acorde Dm7 y se repite a 
lo largo del tema


Con (1)
Una sola vez
Juga un nombre
Nombre que se aparte del que nombras
Y lo crearas 
Con tus manos
A menos que calles para no ver
                        Fmaj7
Y la pradera se abre a mirar
                         Gmaj7
Y sabes que ya contiene esa luz
            Asus2/F#
Que vas a buscar
    Asus2/G
Al fin
        C/G
Y al morir

El calor
  G
Sabes
       Bb5
Que el mar
         (Vuelve a (1))
Es de llanto

Una sola vez...
Y la pradera...

Solo: Esta basado en la escala pentatonica menor de D, 
con algunas notas en escala dorica o aeolica.

Acordes
   Dm7   Fmaj7  Gmaj7  Asus2/F# Asus2/G C/G  G  Bb5
E---1-----0------0-------0--------0------0---3---x
B---1-----1------3-------0--------0------1---3---x
G---2-----2------4-------2--------2------0---0---3
D---0-----2------4-------2--------2------2---0---3
A---x-----0------0-------0--------0------3---2---1
E---x-----1------3-------2--------3------3---3---x

Algunos acordes no estan del todo bien. Espero que manden 
nuevas versiones del tema mejoradas, asi como de otros de 
Silver Sorgo, como Abrázame Inocentemente o La Verdad De 
Las Grullas.
Suggest correction
Give kudos to tab author, rate the tab!
1 2 3 4 5
comments
print report bad tab
guest
You may want to rate the tab now too:
select rating
Wanna post a correction for this tab? Suggest correction