Oops, an error
Loading. Please wait.

Era De Tontos Chords

64 views 3 this week
no commentswrite comment
1 2 3 4 5
3 more votes to show rating
add to favorites
launch autoscroll
font size
0
reset
transpose
0
reset
display chords
guitar tuner
Autoscroll
slow
fast
+/-
esc
set tempo
stop
Help us to improve Ultimate-Guitar.com Take our survey!
×
Intro: (basado en A#5) ======>  (me parece q hace un slide)  G#5sA#5

 A#5 (el de la intro)
No puedo evitar que mi memoria,
                  Riff 1
esté recompilando los viejos tiempos...
El pensamiento y todas esas cosas,
no tengo que olvidar que están en mi cuerpo...

   C#
Donde yo quiero estar,
   D#
es lo que no interesa...
   C#
No elijo el lugar,
   D#
lo tomo por sorpresa... Uhhh Yeeeehh

Riff 2 X4

Despues de mucho andar, estar muy solo...
La preocupación en mi cabeza...
tuve que dar mil vueltas y chocar en todos lados....
para poder gozar el polvo de estrella...

Donde yo quiero estar,
es lo que no interesa...
No eliiiijo el lugar,
lo tomo por sorpresa... Ohh Yeahh

Solo
Riff 2 X22

Intro

El tiempo ya pasó en mis dedos,
la electricidad pierde potencia...
menos mal que ahora el camino está sencillo,
que el viejo polvo no solo está conmigo.

Solo
Riff 2
Riff 3

Riff 1

e|--------------------|
B|--------------------|
G|---8--6-5-----------|
D|-----------8--6-----|
A|--------------------|
E|--------------------|

Riff 2

e|-----------------------------|
B|-----------------------------|
G|-----------------------------|
D|--6--------------------------|
A|----6-8---------6------------|
E|6-------9---9-9-----4-4-6-6--|

Riff 3

e|-----------------------------------------|
B|-----------------------------------------|
G|---15------------------------------------|
D|------13-15-11---11-11-13----------------|
A|13--------------------------11-11-13-13--|
E|-----------------------------------------|


bueno... les debo los solos pero estan los acordes y los riffs
bye
consultas al mail.
Suggest correction
Give kudos to tab author, rate the tab!
1 2 3 4 5
comments
print report bad tab
guest
You may want to rate the tab now too:
select rating
Wanna post a correction for this tab? Suggest correction