Oops, an error
Loading. Please wait.

Hiedra Al Sol Tab

70 views 1 this week
no commentswrite comment
1 2 3 4 5
3 more votes to show rating
add to favorites
launch autoscroll
font size
0
reset
how to read this tab
guitar tuner
×
Best way to learn
"Hiedra Al Sol"
Autoscroll
slow
fast
+/-
esc
set tempo
stop
Bueno, antes que nada quiero decir que no tomo mérito alguno por haber
sacado éste tema, sólo lo estoy transcribiendo. Gracias Manu por
haberle dedicado tanto tiempo, en mi opinión creo que está bastante
bien logrado. Disculpen por los posibles errores presentes en la letra


e|-----------------------------
B|-----------------------------
G|-----7-6-----2---2--2--2--2--
D|-------------0---0--0--0--0--
A|-5-----4---------------------
E|-7-7---5-----2-----2--2--2--2

   Oh,   mi amor

e|------------------------------
B|------------------------------
G|-------------9--------9--9--9-
D|-4-5--7------7--------9--9--9-
A|------7------9----------------
E|-5----9---------------9---9--9

   dime cuando queme el sol

e|--------------------2-----------------0--0-
B|---------5----------3----------------0---0-
G|---------4----------2---------4-----0----0-
D|-2-------5-----2----0-------2------4-----4-
A|--------------------------0-------2------2-
E|-3-------------3-----------------0---------

   con mis manos haré brisa para que no


(repie lo anterior)

Oh, oh oh
dime si podré jugar
sin los sueños la armonía no tiene lugar


e|-------5--------5--------------------
B|------6--------5-------5------------5
G|-----7--------6-------5------------5-
D|----8------7---------7------------3--
A|-5-------5-------5-5-----------5-5---
E|-------------------------------------

   di-me           qué te impide ayudarte

e|-------5--------5--------------
B|------6--------5-------5-------
G|-----7--------6-------5------5-
D|----8------7---------7------3--
A|-5-------5-------5-5-------5---
E|-------------------------3-----

   sólo dime qué te cuesta sentir

e|-------------------------
B|-------------------------
G|-------6--------------10-
D|------6-------------7----
A|-----7------------8------
E|-5-5------------6--------

   que en tu alma también hay amor


e|-----------3-----------------------------
B|-6---6-5-------5---1--1---1---1---1---1--
G|-----7----------------2---2---2---2---2--
D|---7------------------------------------
A|-5-----3---2---3---0----0---0---0---0---0
E|-----------------------------------------

   Oh    tal vez tal vez

e|--------3-----1-------3--3---3--
B|--------3-----1-------3--3---3--
G|-2------3-----2-------3--3---3--
D|---------------------------2---2
A|-3------------------------------
E|--------------------------------

   yo te abrace donde estés

e|----------------------------------------
B|---------------6----------------4-------
G|---------------5---------------7--------
D|-7-----10-------------3-------5------7--
A|-------8--------------3------3------5---
E|-6--------------------1------------3--3-

   sin encuentro la armonía no tiene piel


e|----------------------------------------------------
B|-----------------------------2---2---2--------------
G|-2---2---2----1----1----1----2---2---0---2---2---2--
D|-0---0---0----0----0----0----0---0---0---0---0---0--
A|----------------------------------------------------
E|---2---2---2---2----2----2----2---2----2---2---2--2-

   todos los espejos se han disuelto bajo  el mar

e|---------------------------------------3-3-3-3---0-0-0-0-0-
B|---------------------------2---2---2---3-3-3-3---0-0-0-0-0-
G|-2---2---2----1----1----1--2---2---2---4-4-4-4---0-0-0-0-0-
D|-0---0---0----0----0----0--2---2---2-------------2-2-2-2-2-
A|-------------------------------------------------2-2-2-2-2-
E|---2---2---2---2----2----2---2---2---0---------0-----------

  todos los espejos sin volver


e|--------------------------------------------------
B|------------6---------9-9-8-----------------------
G|-----7-6----5---------8-8-8----5---8-1--1---1---1-
D|------------6---------8-8-8----6---8-3--3---3---3-
A|-5-----4----5---------6-6-6----6---6-3--3---3---3-
E|-7-7---5-----------------------4-----1--1-1---1---

   dime quién eres o quizás no estés aquí

e|----------------------2----------------------------
B|------------6---9-9-8-3---------7-5----3---2-------
G|-----7-6----5---8-8-8-4---7-7-6--------4---2-----2-
D|------------6---8-8-8-0---5-5-5--------4---2-----0-
A|-5-----4----5---6-6-6-----------5------2---0-----0-
E|-7-7---5------------------5-5-5---5--------------2-

   qué dulzor regresa a mí desde el edén hiedra al sol


dime qué impide ayudarte
sólo dime qué te cuesta sentir
que en tu alma también hay amor


Oh tal vez tal vez
yo te abrace donde estés
sin encuentro la armonía no tiene piel


e|-----------------------------
B|-----------------------------
G|-----7-6-----2---2--2--2--2--
D|-------------0---0--0--0--0--
A|-5-----4---------------------
E|-7-7---5-----2-----2--2--2--2

  Oh, mi  amor

e|-----------------------------
B|-7--7----7------------8-8---8
G|-6--6----6------------7-7---7
D|-7--7----7------------8-8---8
A|-5----5---------------7---7--
E|-----------------------------

   dime cuando queme el sol

e|-----------------------------------------------
B|-------8-----7-------3---3---2---0---0---------
G|-------6-----6-------2---2---3---0---0---------
D|-8-------------------------------0---0---------
A|-7---------------------0---0---0---------------
E|-6--6-----6-----6------------------3---3-3-2-0-

   yo con mis manos haré brisa para que no


e|-------0---2----------------------------------------
B|---0---2---3-----------------------0---------0-0--3-
G|---0---0---2---------------------4---------0---0--0-
D|---2---2---0-------------------2---------4-----4--2-
A|-2---0-----------------------0---------2-------2--0-
E|-------------------------------------0---------0----

   con mis manos yo haré brisa para que no


Espero que les sirva! escuchenla bien para pegar bien los tiempos,
gracias.
Suggest correction
Give kudos to tab author, rate the tab!
1 2 3 4 5
comments
print report bad tab
guest
You may want to rate the tab now too:
select rating
Wanna post a correction for this tab? Suggest correction