Oops, an error
Loading. Please wait.

Me Gusta Ese Tajo Tab

59 views 1 this week
no commentswrite comment
1 2 3 4 5
3 more votes to show rating
add to favorites
launch autoscroll
font size
0
reset
how to read this tab
guitar tuner
Autoscroll
slow
fast
+/-
esc
set tempo
stop
Help us to improve Ultimate-Guitar.com Take our survey!
×
Intro:
se lo dedico a mi novia,soy nuevo y todavía no termine mis estudios
en música.


  1------------|-----------|----------------|---------------------|
  2------------|-----------|----0-3---------|---------0-3---------|
  3------------|-----------|--3-----------0-|-------3-----------0-|
  4------------|-----------|----------------|---------------------|
  5--2--2--4--2|-2--2--4--2|---------2--4---|-2--4---------2--4---|
  6--0--0--0--0|-0--0--0--0|---------0--0---|-0--0---------0--0---|


  1------4---|--------4---4^^|------4--------------|
  2----------|---------------|--------0-3-----3-0--|
  3--4-------|--1/4----4-----|--1/4------4^^-------|
  4----------|---------------|---------------------|
  5----------|---------------|---------------------|
  6----------|---------------|---------------------|


  1------------|---------------|-----------------|
  2------------|---------------|-----------------|
  3--------3^--|---------2^-0--|--3^^-3^^-3^^-2--|
  4------------|---------------|-----------------|
  5--2--4------|--2--4---------|-----------------|
  6--0--0------|--0--0---------|-----------------|


  1------6---5------4--------|---4-------3-----2---------------|
  2----------------------3---|---------------------- -------2--|
  3-2/4----4-----2/4---4---4-|-4-----4/3---3/2----0/1-------2--|
  4--------------------------|------------------------------1--|
  5--------------------------|------------------------0^2---2--|
  6--------------------------|---------------------------------|


  1-----------------------|-----------------------|------- ----|
  2-----------------------|-----------------------|------------|
  3----1------------------|---3^--0.2-0.2-0.2^--0-|--1---------|
  4----2------------------|-----------------------|--2---------|
  5----2------------------|-----------------------|--2---------|
  6-----------------------|-----------------------|------------|

  con sus lindas piernas..ella me hace pensar.  pero a destruir...


  1-----------------|-------6---5--------4----------------------|
  2--------------0--|-------------------------3---------3-3-3-3-|
  3--2^--2^--2^-----|--2/4----4-------2/4---4---4---0-----------|
  4-----------------|-------------------------------------------|
  5-----------------|-------------------------------------------|
  6-----------------|-------------------------------------------|


  1------6---5-------4--------|----4-------3-----2--------------------|
  2-----------------------3---|------------------------------------2--|
  3-2/4----4-----2/4---4----4-|--4-----4/3---3/2----0/1------------2--|
  4---------------------------|------------------------------------1--|
  5---------------------------|--------------------------0^2-------2--|
  6---------------------------|---------------------------------------|
Suggest correction
Give kudos to tab author, rate the tab!
1 2 3 4 5
comments
print report bad tab
guest
You may want to rate the tab now too:
select rating
Wanna post a correction for this tab? Suggest correction