Oops, an error
Loading. Please wait.

Muchacha Ojos De Papel Tab

version 2
version 2

Whole song

211 views 3 this week
no commentswrite comment
1 2 3 4 5
2 more votes to show rating
add to favorites
launch autoscroll
font size
0
reset
how to read this tab
guitar tuner
×
Best way to learn
"Muchacha Ojos De Papel"
Autoscroll
slow
fast
+/-
esc
set tempo
stop
Soy AMIGO PERSONAL de Luis Alberto Spinetta hace 10 años.
Me esforzé en sacar EXACTAMENTE NOTA POR NOTA la INTRO ORIGINAL de Muchacha
tal como sale en el disco Almendra, ya que todas las otras versiones no
corresponden a la del disco original. Ojalá la publiquen y agradecería MUCHO
si alguien me la puede aprobar/corregir/modificar.
La comprobé aki  
y me parece que esta suena igual al disco.
Cualquier comentario será muy bien recibido.


INTRO
e----------------------------3--
b-3_5----3_4---3-------------3--
g-----0------0---0-----------0--
d-------------------0--0--0--0--
a-----------------/5---3--2--2--
E----------------------------3--


-0_3---------------------2--3--0_3--2--0--0_3-
-------------------------3--3--0_3--3--1--0_3-
-------------------------2--0--0----2--0--0---
----0-----0-----0---0-------2--0-------2--0---
-0_3---0_2---0_1---0--------3--2-------3--2---
-------------------------------3-------3--3---


G  D/F#  E    Am7  D

Esperando comentarios...
peterarosm@
Suggest correction
Give kudos to tab author, rate the tab!
1 2 3 4 5
comments
print report bad tab
guest
You may want to rate the tab now too:
select rating
Wanna post a correction for this tab? Suggest correction