Oops, an error
Loading. Please wait.

Por Tab

version 1
version 1

Whole song

69 views 1 this week
no commentswrite comment
1 2 3 4 5
3 more votes to show rating
add to favorites
launch autoscroll
font size
0
reset
how to read this tab
guitar tuner
×
Best way to learn
"Por"
Autoscroll
slow
fast
+/-
esc
set tempo
stop
es una cancion un tanto complicada, pero espero qeu la disfruten
tanto como yo.... cualquier casa me ecriben... ya tienen mi mail!
se te quiere niña loka!


Dmaj7  Amaj7/C#   Bm     A      G           F#m           F   G   A   F
E--------------------------------------3------------3-------1---3---5---1-|
B--------------5-------3-----------------3------------2-----1---3---5---1-|
G------------6-------4--------6------4-----4------2-----2---2---4---6---2-|
D--7-------7-------4--------7------5------------4-----------3---5---7---3-|
A-5------4-------2--------7---------------------------------3---5---7---3-|
E-----------------------5-------3-------------2-------------1---3---5---1-|


   G               Dmaj7  Amaj7/C#   Bm     A      G           F#m
E--3----------------------------------------------------3------------3----|
B--3----------------------------5-------3-----------------3------------2--|
G--4--4-4*5*4-----------------6-------4--------6------4-----4------2-----2|
D--5----------7-5----7-------7-------4--------7------5-----------4--------|
A--5---------------5------4-------2--------7------------------------------|
E--3-------------------------------------5-------3-------------2----------|


    F   G   A   F   G     A   F#maj7  F#maj7/F  Fmaj7/E
E---1---3---5---1---3-----5-----------------------------------------------|
B---1---3---5---1---3-----5-------2------2------2--4----2-4-2-4-2---------|
G---2---4---6---2---4-----6-----3------3------3----3----3-3-3-3-3--4-3-2--|
D---3---5---7---3---5-----7---4------3------2------2----2-2-2-2-2------0--|
A---3---5---7---3---5-----7-----------------------------------------------|
E---1---3---5---1---3-----5-----------------------------------------------|


                                                                   F#maj7
E---------------0-------2-------0------------0-------2-------0------------|
B------------------------------------------------------------------------2|
G----------------------------------------------------------------------3--|
D-0-0/2---2-2/4---4-4/2---2-0----------0-0/2---2-2/4---4-4/2---2-0---4----|
A-------------------------------------------------------------------------|
E-------------------------------------------------------------------------|


  F#maj7/F  Fmaj7/E
E---------------------------------------------0--------2-------0----------|
B------2------2--4----2-4-2-4-2-------------------------------------------|
G----3------3----3----3-3-3-3-3--4-3-2------------------------------------|
D--3------2------2----2-2-2-2-2------0--0-0/2----2-2/4---4-4/2---2-0--0-0/|
A-------------------------------------------------------------------------|
E-------------------------------------------------------------------------|


                         A° F#°  D° Dm7 D7b5 C      Bb Am G   F
-----------2-------0-----2---5---3---5-------3------1--0--3---1------|
B------------------------1---4---2---6---6---5------3--1--3---1------|
G------------------------2---5---3---5---5---5------3--2--4---2------|
D2---2-2/4---4-4/2---2---1---4---2---7---6---5------3--2--5---3------|
A------------------------------------5---5---3------1--0--5---3------|
E---------------------------------------------------------3---1------|
Suggest correction
Give kudos to tab author, rate the tab!
1 2 3 4 5
comments
print report bad tab
guest
You may want to rate the tab now too:
select rating
Wanna post a correction for this tab? Suggest correction