Oops, an error
Loading. Please wait.

Por Tab

version 2
version 2

Whole song

40 views 6 this week
no commentswrite comment
1 2 3 4 5
3 more votes to show rating
add to favorites
launch autoscroll
font size
0
reset
how to read this tab
guitar tuner
×
Best way to learn
"Por"
Autoscroll
slow
fast
+/-
esc
set tempo
stop
Por
Luis Alberto Spinetta
Artaud (1972)

Esta es mi primera colaboración a esta comunidad. Ya hay 3 versiones
de este tema y los 3 me ayudaron a hacer mi versión. También me ayudé
de videos de youtube y por supuesto con el disco Araud xD
Es un tema hermosisimo, usando plabaras lindas según palabras del
Flaco, y es muy lindo tocarlo y cantarlo.
Espero que les sirva y gracias! Sentía que tenía que devolverle algo
a esta página después de tantos años de dar y dar =)

   D            A/C#         Bm           A
e|-------2------------0-------------------------------|
B|-----3---3--------3---3----------3------------2-----|
G|---2-------2----2-------2------4---4--------2---2---|
D|-0---------------------------4-------4----2-------2-|
A|--------------4------------2------------0-----------|
E|----------------------------------------------------|
    Arbol, oja, salto luz,          aproximación

  G           F#m           F     G     A     F     G
e|------3-------------------1-----3-----5-----1-----3----------------|
B|--------0---------2-------1-----3-----5-----1-----3-----0-0p1------|
G|----0-----0-----2---2-----2-----4-----6-----2-----4--4---------2-0-|
D|--0-----------4-------4---3-----5-----7-----3-----5--5-------------|
A|--------------------------3-----5-----7-----3-----5--5-------------|
E|3-----------2-------------1-----3-----5-----1-----3--3-------------|
      mueble lana gusto pie te     marcas      mi  ra das

   D            D/C#         Bm           A
e|-2-----2------------0-------------------------------
B|-----3---3--------3---3----------3------------2-----
G|---2-------2----2-------2------4---4--------2---2---
D|-0---------------------------4-------4----2-------2-
A|--------------4------------2------------0-----------
E|----------------------------------------------------
    Nube loba dedo cal              gesticulador

  G            F#m           F     G     A     F     G
e|------3--------------------1-----3-----5-----1-----3-----|
B|--------0----------2-------1-----3-----5-----1-----3-----|
G|----0-----0------2---2-----2-----4-----6-----2-----4-----|
D|--0------------4-------4---3-----5-----7-----3-----5-----|
A|---------------------------3-----5-----7-----3-----5-----|
E|3------------2-------------1-----3-----5-----1-----3-----|
      hijo cama menta sien  rey   fin   sol     amigo

   A5   F#maj7 F#maj7/F F#maj7/E
e|-------------------------------------------------|
B|----------2------2-------2-4----2-4-2-4-2--------|
G|-2------3------3-------1---1----1-1-1-1-1---4-3--|
D|-2----4------3-------2-----2----2-2-2-2-2--------|
A|-0-----------------------------------------------|
E|-------------------------------------------------|
  curz alga  dado  cielo riel estalactita  mira-


   D(rápido)
e|-------2---------------2-------------2-------------2-------|
B|-----3---3-----------3---3---------3---2---------3---3-----|
G|---2-------2-------2-------2-----2-------3-----2-------2---| x2
D|-0-----------0-0p2-----------2p4-----------4p2-------------|
A|-----------------------------------------------------------|
E|-----------------------------------------------------------|
  dor                                        corazón

      F#maj7 F#maj7/F F#maj7/E
e|-----------------------------------------------|
B|--------2------2-------2-4----2-4-2-4-2--------|
G|------3------3-------1---1----1-1-1-1-1---4-3--|
D|----4------3-------2-----2----2-2-2-2-2--------|
A|-----------------------------------------------|
E|-----------------------------------------------|
    hombre rayo  felpa sed  extremidad insola-

   D(rápido)
e|-------2---------------2-------------2-------------2-------|
B|-----3---3-----------3---3---------3---2---------3---3-----|
G|---2-------2-------2-------2-----2-------3-----2-------2---| x2
D|-0-----------0-0p2-----------2p4-----------4p2-------------|
A|-----------------------------------------------------------|
E|-----------------------------------------------------------|
  ción                                      parecer

   Amaj                             D7
e|-5---5---5---5---5---5---5---5----5--5--5--|
B|-------4-------4-------4-------4--6--6--6--|
G|---5-------5-------5-------5------5--5--5--|
D|-4-------4-------4-------4--------7--7--7--|
A|----------------------------------5--5--5--|
E|-------------------------------------------|
           clavo    coito           dioos

   Dmaj           Dm        Dm*
e|-3---3----3-3---1-1-1-1---1---1---1---1---|
B|-------2--2-2---3-3-3-3---------0-------0-|
G|---3------3-3---2-2-2-2-----2-------2-----|
D|-2--------2-2---0-0-0-0---0-------0-------|
A|------------------------------------------|
E|------------------------------------------|
             te  mor


Final                        (más lento)
   C      B        Am       G            F
e|--------------------------------------------1-|
B|--------3---3----1---1----0---------0------1--|
G|-----0--------3--------2---------0--------2---|
D|---2------3--------2----------0----------3----|
A|-3------1--------0----------------------3-----|
E|--------------------------3------------1------|
  mujer por


________________________________________________


Eso es todo amigos, espero haberlos ayudado ...
Suggest correction
Give kudos to tab author, rate the tab!
1 2 3 4 5
comments
print report bad tab
guest
You may want to rate the tab now too:
select rating
Wanna post a correction for this tab? Suggest correction