Oops, an error
Loading. Please wait.

Viento Chords

23 views 3 this week
no commentswrite comment
1 2 3 4 5
3 more votes to show rating
add to favorites
launch autoscroll
font size
0
reset
transpose
0
reset
simplify chords
display chords
guitar tuner
Autoscroll
slow
fast
+/-
esc
set tempo
stop
Help us to improve Ultimate-Guitar.com Take our survey!
×
Esta canción es dedicada a una mujer que quiero desde
la infancia Linney, y en agradecimiento a este gran
compositor que estuvo en Colombia, en el mes de la amor
y la amistad. la pueden tocar ritmica o arpegiada

INTRO

D   G   D   G

VERSO

  D         Dsus4    D
Vientooo  (Vientooooo)
 C                    G
Tu que viajas por el mundo
           D   Dsus4   D   D5
B A vez
 C                G
Dile que aun la quiero
           D   Dsus4   D   Dsus4
y sigo fiel

B7
Fiel a sus caricias,
                 G
su perfume y su desnudez
  D
Viento si supieras,
  Em       A7     D           C   G   A
cuanto amo yo, a esa mujer


  D         Dsus4    D
Vientooo  (Vientooooo)
  C                   G
Cuentale que soy sin ella
           D   Dsus4   D   D5
un hombre gris
 C                  G
Dile que vivir sin ella,
           D   Dsus4   D   Dsus4
no es vivir
 B7
Renuncié a todo por seguirle,
     G
pero ya lo vez
 D
Se voló del nido,

 Em         A7     D       Em
para nunca más volver


CORO

  A7     D
Vive en miiiii.... (Vive en miiiii....)
 D            G      D
Como el juego en un niño
    G         D
El pez en el agua
 D      G
Vive en mi....

 G       Em
Vive en miiiii.... (Vive en miiiii....)
 Em       A7      Em
Como gota de rocío
       A7     Em
sobre flor silvestre
  A7     D      Em
Vive en mi....

  A7     D
Vive en miiiii....
 D            G      D
Flota en mi pensamiento
         G           D
Ella es luz, es tiempo
 D      G
Vive en mi....

 G       Em
Vive en miiiii....
 Em      A7      Em
Cada uno de sus besos
       A7     Em
Y el mejor momento
 A7     D     C    G    A
Vive en mi....ii...ii..iii

INTRO

D   G   D   G

VERSO

  D         Dsus4    D
Vientooo  (Vientooooo)
 C                    G
Tu que viajas por el mundo
           D   Dsus4   D   D5
B A vez
 C                G
Dile que aun la quiero
           D   Dsus4   D   Dsus4
y sigo fiel

 B7
Nanananana...na
                 G
nananana...nananaaaa
  D
Viento si supieras
  Em       A7     D       Em
cuanto amo yo, a esa mujer


CORO

  A7     D
Vive en miiiii.... (Vive en miiiii....)
 D            G      D
Como el juego en un niño
    G         D
El pez en el agua
 D      G
Vive en mi....

 G       Em
Vive en miiiii.... (Vive en miiiii....)
 Em       A7      Em
Como gota de rocío
       A7     Em
sobre flor silvestre
  A7     D      Em
Vive en mi....

  A7     D
Vive en miiiii....
 D            G      D
Flota en mi pensamiento
         G           D
Ella es luz, es tiempo
 D      G
Vive en mi....

 G       Em
Vive en miiiii....
 Em      A7      Em
Cada uno de sus besos
       A7     Em
Y el mejor momento
 A7     D      Em
Vive en mi...


INTRO ARPEGIADO

    D                   G
e ---------2-------------------3----------
B -----3------3---0--------0------0---0---
G -------2------2------------0------0-----
D --0-------------------------------------
A ----------------------------------------
E ----------------------3-----------------

    D                   G

e ---------2-------------------3----------
B -----3------3---0--------0------0---0---
G -------2------2------------0------0-----
D --0-------------------------------------
A ----------------------------------------
E ----------------------3-----------------


VERSO ARPEJIADO

    D               Dsus4    D
e -----------2-------3-------2-------------
B -----3---3---3---3---3---3---3---0-------
G -------2-------2-------2-------2---------
D --0--------------------------------------
A -----------------------------------------
E -----------------------------------------

    C                 G
e ---------0-----------------3-------------
B -----1------1---0------0------0----------
G -------0------0----------0------0--------
D -----------------------------------------
A --3--------------------------------------
E --------------------3--------------------


    D       Dsus4    D       D5
e --2--------3-------2-------0-------------
B -----3---3---3---3---3---3---3-----------
G -------2-------2-------2-----------------
D --0--------------------------------------
A -----------------------------------------
E -----------------------------------------


    C                 G
e ---------0-----------------3-------------
B -----1------1---0------0------0----------
G -------0------0----------0------0--------
D -----------------------------------------
A --3--------------------------------------
E --------------------3--------------------


    D       Dsus4    D      Dsus4
e --2--------3-------2-------3-------------
B -----3---3---3---3---3---3---3-----------
G -------2-------2-------2-----------------
D --0--------------------------------------
A -----------------------------------------
E -----------------------------------------


    B7                B7
e ---------2-----------------2-------------
B -----0------0---0------0------0---0------
G -------2------2----------2------2--------
D --------------------1--------------------
A --2--------------------------------------
E -----------------------------------------


    G                 G
e ---------3-----------------3-------------
B -----0------0---0------0------0---0------
G -------0------0----------0------0--------
D -----------------------------------------
A -----------------------------------------
E --3-----------------3--------------------

    D                Em          A7          D
e -----------2--------------------------0-----------2-------
B -----3---3---3---0------0---0-----2-----------3-----3-----
G -------2-------2----------0---------0-----------2-----2---
D --0----------------------------------------0--------------
A -------------------------------0--------------------------
E --------------------0-------------------------------------

     C   G   A
e ---0---3---0-----
B ---1---0---2-----
G ---0---0---2-----
D ---2---0---2-----
A ---3---2---0-----
E ---X---3---X-----

ACORDES  USADOS

A       X02220
A7      X02020
D       XX0232
G       320003
Dsus4   XX0233
D5      XX0230
Em      022000
B7      X21202
C       X32010
Suggest correction
Give kudos to tab author, rate the tab!
1 2 3 4 5
comments
print report bad tab
guest
You may want to rate the tab now too:
select rating
Wanna post a correction for this tab? Suggest correction