Oops, an error
Loading. Please wait.

Django Tab

version 1
version 1

Solo

Whole song

3,943 views 1 this week
no commentswrite comment
1 2 3 4 5
excellent!
x 3
add to favorites
launch autoscroll
font size
0
reset
how to read this tab
guitar tuner
Autoscroll
slow
fast
+/-
esc
set tempo
stop
Help us to improve Ultimate-Guitar.com Take our survey!
×
Author
Difficulty
novice
The solo from Django by Luis Bacalov

Pretty easy but nice solo. Of course you can play it in higher positions, but i 
think this one sounds best.
optional:

h - hammer on
p - pull off
~ - slight vibrato



   Dm                           G
e|----------------------------------------1h3p1---1--3-0-------|
b|-------------------------------------3--------3--------1-3~--|
g|--2~--------2--------2--------0--3-4-------------------------|
d|-------0-3----3-0-3----3-0-3---------------------------------|
a|-------------------------------------------------------------|
e|-------------------------------------------------------------|

   Dm                           F

e|-----------------------------------------------|
b|-------------------------------1~--3-1---3-1~--|
g|------------2--------2-----------------2-------|
d|-------0-3----3-0-3----3-0-3-------------------|
a|-----------------------------------------------|
e|-----------------------------------------------|
Suggest correction
Give kudos to tab author, rate the tab!
1 2 3 4 5
comments
print report bad tab
guest
You may want to rate the tab now too:
select rating
Wanna post a correction for this tab? Suggest correction