Oops, an error
Loading. Please wait.

Django Tab

version 1
version 1

Whole song

48,825 views 153 this week
7 commentsread comments
1 2 3 4 5
excellent!
x 13
add to favorites
launch autoscroll
font size
0
reset
how to read this tab
guitar tuner
Tab Pro tools
  • play this tab
  • loop segment
  • change instrument
  • show fretboard
  • metronome
×
Best way to learn
"Django"
Autoscroll
slow
fast
+/-
esc
set tempo
stop
Contributor
Difficulty
novice
Django – Luis Bacalov
Tuning: Standart
I'm pretty sure it's 99% accurate, but the end of the intro riff is not so 
accurate but i think it fits in.
Enjoy ^^

intro: 

E|-3h5-0--3-0-3h5-3-0-5-3-5-3-0-3h5-0--3-0-3h5-3-0------------|
B|-------------------------------------------------2p0--------|
G|----------------------------------------------------2p0-----|
D|-------------------------------------------------------3p0--|
A|------------------------------------------------------------|
E|------------------------------------------------------------|

Dm 
Django!
                    G              F  G
Django, have you always been alone?
Dm
Django!
                  F
Django, have you never loved again?
           Bb             F
Love will live on, oh oh oh...
           Bb             A
Life must go on, oh oh oh...
F                          G           A    F G A
For you cannot spend your life regreatting.
Dm
Django!
                   G             F  G
Django, you must face another day.
Dm
Django!
                   F
Django, now your love has gone away.
          Bb               F
Once you loved her, whoa-oh...
          Bb                 A
Now you've lost her, whoa-oh-oh-oh...
            F        G   A      Dm
But you've lost her for-ever, django.
Bb                                  F
When there are clouds in the skies, and they are grey.
Bb                           F                   G A
You may be sad but remember that love will pass away.
Dm        Bb-
Oh django!
Bb              C            A
After the showers is the sun.
G    A       Dm
Will be shining...

Solo:

E|---------------------------|---------------1-3-5-3-1-5-|
B|---------------------------|-------------3-------------|
G|--2-----2p0---------2p0----|--------0------------------|
D|----0-3-----3p0--3------3p0|-(0)-3---------------------|
A|---------------------------|---------------------------|
E|---------------------------|---------------------------|

E|-5-1-------------------|------------------------------|----------|
B|-----2-3---------------|--------------------1---3-1---|--3--1----|
G|---------------2p0-----|---------2p0----------------2-|----------|
D|----------0-3------3p0-|--(0)-3------3p0--3-----------|----------|
A|-----------------------|------------------------------|----------|
E|-----------------------|------------------------------|----------|

           Bb           F
Once you loved her, whoa-oh...
           Bb                A
Now you've lost her, whoa-oh-oh-oh...
            F        G   A     Dm
But you've lost her for-ever, django.
Bb                                  F
When there are clouds in the skies, and they are grey.
Bb                                F             G A
You may be sad but remember that love will pass away.
Dm     Bb-
Oh django!
Bb            C             A
After the showers is the sun.
G    A       Dm
Will be shining...
Dm
Django!
Dm
Oh oh oh django!
Dm
You must go on,
Dm
Oh oh oh django...
comments
print report bad tab
7 comments total. Showing first comments.
0 reply
AngelEyesRipper wrote on April 2 2013, 07:24 am

Yea it's 99% right.

0 reply
WesECrosby wrote on May 2 2013, 10:27 pm

Love this song and the movie. Thank you for tabbing it!!!!
*****

+3 reply
Lycheesz wrote on May 15 2013, 08:00 am

Solo goes like this:

Solo:

E|---------------------------|---------------1-3-1---1--|
B|---------------------------|------------0-3------3----|
G|--2-----2p0---------2p0----|--------0-----------------|
D|----0-3-----3p0--3------3p0|-(0)-3--------------------|
A|---------------------------|--------------------------|
E|---------------------------|--------------------------|

E|-3-0-------------------|------------------------------|----------|
B|-----1-3---------------|--------------------1---3-1---|--3--1----|
G|---------------2p0-----|---------2p0----------------2-|----------|
D|----------0-3------3p0-|--(0)-3------3p0--3-----------|----------|
A|-----------------------|------------------------------|----------|
E|-----------------------|------------------------------|----------|

I want to post or [tab]
guest
You may want to rate the tab now too:
select rating
Please do not post tabs as comments. Select "correction" instead!