Oops, an error
Loading. Please wait.

Guerrero Tab

version 2
version 2

Whole song

70 views 1 this week
no commentswrite comment
1 2 3 4 5
2 more votes to show rating
add to favorites
launch autoscroll
font size
0
reset
how to read this tab
guitar tuner
×
Best way to learn
"Guerrero"
Autoscroll
slow
fast
+/-
esc
set tempo
stop
Hola a todos! Por favor cualquier duda o
comentario escribanme a d_mjh@hotmail, ya q es mi 1er aporte, sds.

Tema:Guerrero  Artista:Barni

Intro:  [ch]Em[/ch]

E|---------------------------------------------------------
B|---------------------------------------------------------
G|---------------------------------------------------------
D|-----9-10-7-9--------7----------9-10-7-9--------7--------
A|---7----------7-9-10---10-9-7-7----------7-9-10---10-9---
E|------------------------------------------------------10-

E-----------------------------------------------------
B-----------------------------------------------------
G-----------------------------------------------------
D---9-10-7-9--------7--------9-10-7-9--------7--------
A------------7-9-10---10-9------------7-9-10---10-9---
E--------------------------8------------------------7-

E-------------------------------------------------|repite
B-------------------------------------------------|los 3
G-------------------------------------------------|una vez
D---9-10-7-9----7---------------------------------|mas y si
A------------10---9-10-7-9-10-9-7-9h10h9-7-6-7----|gue lo d
E---------------------7---------------------------|abajo?


E--------------------------------------------------|
B--------------------------------------------------|
G-------------------------------------------9---9--|
D---9-10-7-9----7--------7------------------9---9--|
A------------10---9-10-7---9-10-7-9-6-7---9-7-9-7--|
E-----------------------------------------7---7----|

Ahora hagan acordes en 5ta

E                                    B A G [ch]F# E[/ch]
Soy guerrero redimido temo su verdad
C                           G            D D#
Su palabra me ha instruido siempre vencera
E                                   B A G [ch]F# E[/ch]
La victoria va conmigo soy su portavoz
C                        G              D C B
en la cruz a su enemigo fue lo que vencio
           E            C           G
y ahora q el es mi rey, unido a la gran convicción
      D             B        E
de salir a luchar, guerrero soy

Preparado y revestido estoy para salir
Al rescate de aquellos que perdidos están
Me han enviado a librarlos de todo su dolor
Que hay esperanza que no todo se perdió
Que en medio de la oscuridad existe la oportunidad
De volver a empezar hoy otra vez

B                                   D C B
Dispuesto a pelear estaré, no temeré
B                                      D E
Su espiritu esta sobre mi, siempre vencere


Solo: (Prometo q pronto lo tendré).


B                                        E
Su espiritu esta sobre mi, siempre vencere


Cada vez q nos cruzamos para pelear
Muchas estrategias usa contra mi debilidad
Con la espada entre mis manos y la santidad
En cristo lo enfrento,y no puede soportar
Y ahora q el es mi rey, unido a la gran convicción
De salir a luchar,guerrero soy.

QUE DIOS LOS BENDIGA A TODOS Y ESPERO LES GUSTE
FEDER2100@
Suggest correction
Give kudos to tab author, rate the tab!
1 2 3 4 5
comments
print report bad tab
guest
You may want to rate the tab now too:
select rating
Wanna post a correction for this tab? Suggest correction